  0
SECTION
  2
HEADER
  9
$ACADVER
  1
AC1015
  9
$ACADMAINTVER
 70
    20
  9
$DWGCODEPAGE
  3
ANSI_1252
  9
$INSBASE
 10
0.0
 20
0.0
 30
0.0
  9
$EXTMIN
 10
-2609262600.666273
 20
-2523174236.913826
 30
0.0
  9
$EXTMAX
 10
-2609262594.883146
 20
-2523174229.937374
 30
0.0
  9
$LIMMIN
 10
0.0
 20
0.0
  9
$LIMMAX
 10
210.0
 20
297.0
  9
$ORTHOMODE
 70
     0
  9
$REGENMODE
 70
     1
  9
$FILLMODE
 70
     1
  9
$QTEXTMODE
 70
     0
  9
$MIRRTEXT
 70
     0
  9
$LTSCALE
 40
1.0
  9
$ATTMODE
 70
     1
  9
$TEXTSIZE
 40
150.0
  9
$TRACEWID
 40
1.0
  9
$TEXTSTYLE
  7
100
  9
$CLAYER
  8
ESF_Spielgeraet
  9
$CELTYPE
  6
ByLayer
  9
$CECOLOR
 62
     7
  9
$CELTSCALE
 40
1.0
  9
$DISPSILH
 70
     0
  9
$DIMSCALE
 40
1.0
  9
$DIMASZ
 40
1.0
  9
$DIMEXO
 40
1.0
  9
$DIMDLI
 40
1.0
  9
$DIMRND
 40
0.0
  9
$DIMDLE
 40
3.0
  9
$DIMEXE
 40
1.0
  9
$DIMTP
 40
0.0
  9
$DIMTM
 40
0.0
  9
$DIMTXT
 40
1.0
  9
$DIMCEN
 40
1.0
  9
$DIMTSZ
 40
0.0
  9
$DIMTOL
 70
     0
  9
$DIMLIM
 70
     0
  9
$DIMTIH
 70
     0
  9
$DIMTOH
 70
     0
  9
$DIMSE1
 70
     0
  9
$DIMSE2
 70
     0
  9
$DIMTAD
 70
     1
  9
$DIMZIN
 70
     8
  9
$DIMBLK
  1

  9
$DIMASO
 70
     1
  9
$DIMSHO
 70
     1
  9
$DIMPOST
  1

  9
$DIMAPOST
  1

  9
$DIMALT
 70
     0
  9
$DIMALTD
 70
     3
  9
$DIMALTF
 40
0.03937007874016
  9
$DIMLFAC
 40
1.0
  9
$DIMTOFL
 70
     1
  9
$DIMTVP
 40
0.0
  9
$DIMTIX
 70
     0
  9
$DIMSOXD
 70
     0
  9
$DIMSAH
 70
     0
  9
$DIMBLK1
  1

  9
$DIMBLK2
  1

  9
$DIMSTYLE
  2
1
  9
$DIMCLRD
 70
     0
  9
$DIMCLRE
 70
     0
  9
$DIMCLRT
 70
     0
  9
$DIMTFAC
 40
1.0
  9
$DIMGAP
 40
1.0
  9
$DIMJUST
 70
     0
  9
$DIMSD1
 70
     0
  9
$DIMSD2
 70
     0
  9
$DIMTOLJ
 70
     0
  9
$DIMTZIN
 70
     8
  9
$DIMALTZ
 70
     0
  9
$DIMALTTZ
 70
     0
  9
$DIMUPT
 70
     0
  9
$DIMDEC
 70
     2
  9
$DIMTDEC
 70
     2
  9
$DIMALTU
 70
     2
  9
$DIMALTTD
 70
     3
  9
$DIMTXSTY
  7
Standard
  9
$DIMAUNIT
 70
     0
  9
$DIMADEC
 70
     2
  9
$DIMALTRND
 40
0.0
  9
$DIMAZIN
 70
     0
  9
$DIMDSEP
 70
    44
  9
$DIMATFIT
 70
     3
  9
$DIMFRAC
 70
     0
  9
$DIMLDRBLK
  1

  9
$DIMLUNIT
 70
     2
  9
$DIMLWD
 70
    -2
  9
$DIMLWE
 70
    -2
  9
$DIMTMOVE
 70
     0
  9
$LUNITS
 70
     2
  9
$LUPREC
 70
     4
  9
$SKETCHINC
 40
1.0
  9
$FILLETRAD
 40
0.0
  9
$AUNITS
 70
     0
  9
$AUPREC
 70
     0
  9
$MENU
  1
.
  9
$ELEVATION
 40
0.0
  9
$PELEVATION
 40
0.0
  9
$THICKNESS
 40
0.0
  9
$LIMCHECK
 70
     0
  9
$CHAMFERA
 40
0.0
  9
$CHAMFERB
 40
0.0
  9
$CHAMFERC
 40
0.0
  9
$CHAMFERD
 40
0.0
  9
$SKPOLY
 70
     0
  9
$TDCREATE
 40
2453325.398830648
  9
$TDUCREATE
 40
2453325.315497315
  9
$TDUPDATE
 40
2458018.349732905
  9
$TDUUPDATE
 40
2458018.266399572
  9
$TDINDWG
 40
4.5975423495
  9
$TDUSRTIMER
 40
4.5975405440
  9
$USRTIMER
 70
     1
  9
$ANGBASE
 50
0.0
  9
$ANGDIR
 70
     0
  9
$PDMODE
 70
     0
  9
$PDSIZE
 40
0.0
  9
$PLINEWID
 40
0.0
  9
$SPLFRAME
 70
     0
  9
$SPLINETYPE
 70
     6
  9
$SPLINESEGS
 70
     8
  9
$HANDSEED
  5
86ED3
  9
$SURFTAB1
 70
     6
  9
$SURFTAB2
 70
     6
  9
$SURFTYPE
 70
     6
  9
$SURFU
 70
     6
  9
$SURFV
 70
     6
  9
$UCSBASE
  2

  9
$UCSNAME
  2

  9
$UCSORG
 10
0.0
 20
0.0
 30
0.0
  9
$UCSXDIR
 10
1.0
 20
0.0
 30
0.0
  9
$UCSYDIR
 10
0.0
 20
1.0
 30
0.0
  9
$UCSORTHOREF
  2

  9
$UCSORTHOVIEW
 70
     0
  9
$UCSORGTOP
 10
0.0
 20
0.0
 30
0.0
  9
$UCSORGBOTTOM
 10
0.0
 20
0.0
 30
0.0
  9
$UCSORGLEFT
 10
0.0
 20
0.0
 30
0.0
  9
$UCSORGRIGHT
 10
0.0
 20
0.0
 30
0.0
  9
$UCSORGFRONT
 10
0.0
 20
0.0
 30
0.0
  9
$UCSORGBACK
 10
0.0
 20
0.0
 30
0.0
  9
$PUCSBASE
  2

  9
$PUCSNAME
  2

  9
$PUCSORG
 10
0.0
 20
0.0
 30
0.0
  9
$PUCSXDIR
 10
1.0
 20
0.0
 30
0.0
  9
$PUCSYDIR
 10
0.0
 20
1.0
 30
0.0
  9
$PUCSORTHOREF
  2

  9
$PUCSORTHOVIEW
 70
     0
  9
$PUCSORGTOP
 10
0.0
 20
0.0
 30
0.0
  9
$PUCSORGBOTTOM
 10
0.0
 20
0.0
 30
0.0
  9
$PUCSORGLEFT
 10
0.0
 20
0.0
 30
0.0
  9
$PUCSORGRIGHT
 10
0.0
 20
0.0
 30
0.0
  9
$PUCSORGFRONT
 10
0.0
 20
0.0
 30
0.0
  9
$PUCSORGBACK
 10
0.0
 20
0.0
 30
0.0
  9
$USERI1
 70
     0
  9
$USERI2
 70
     0
  9
$USERI3
 70
     0
  9
$USERI4
 70
     0
  9
$USERI5
 70
     0
  9
$USERR1
 40
0.0
  9
$USERR2
 40
0.0
  9
$USERR3
 40
0.0
  9
$USERR4
 40
0.0
  9
$USERR5
 40
0.0
  9
$WORLDVIEW
 70
     1
  9
$SHADEDGE
 70
     3
  9
$SHADEDIF
 70
    70
  9
$TILEMODE
 70
     1
  9
$MAXACTVP
 70
    64
  9
$PINSBASE
 10
0.0
 20
0.0
 30
0.0
  9
$PLIMCHECK
 70
     0
  9
$PEXTMIN
 10
0.7612936004385347
 20
0.7559578922353012
 30
0.0
  9
$PEXTMAX
 10
832.7911693029754
 20
585.9562928245313
 30
0.0
  9
$PLIMMIN
 10
-3.757080078125
 20
-3.757083415985107
  9
$PLIMMAX
 10
837.2369384765624
 20
590.2219204902649
  9
$UNITMODE
 70
     0
  9
$VISRETAIN
 70
     1
  9
$PLINEGEN
 70
     0
  9
$PSLTSCALE
 70
     1
  9
$TREEDEPTH
 70
  3020
  9
$CMLSTYLE
  2
Standard
  9
$CMLJUST
 70
     0
  9
$CMLSCALE
 40
20.0
  9
$PROXYGRAPHICS
 70
     1
  9
$MEASUREMENT
 70
     1
  9
$CELWEIGHT
370
    -1
  9
$ENDCAPS
280
     0
  9
$JOINSTYLE
280
     0
  9
$LWDISPLAY
290
     0
  9
$INSUNITS
 70
     4
  9
$HYPERLINKBASE
  1

  9
$STYLESHEET
  1
monochrome.ctb
  9
$XEDIT
290
     1
  9
$CEPSNTYPE
380
     0
  9
$PSTYLEMODE
290
     1
  9
$FINGERPRINTGUID
  2
{84C6DA88-BD7E-44D7-AD8D-086D7E86F6BE}
  9
$VERSIONGUID
  2
{873B55B3-C458-417C-BAD4-2E815D613A9F}
  9
$EXTNAMES
290
     1
  9
$PSVPSCALE
 40
0.0
  9
$OLESTARTUP
290
     0
  0
ENDSEC
  0
SECTION
  2
CLASSES
  0
CLASS
  1
ACDBDICTIONARYWDFLT
  2
AcDbDictionaryWithDefault
  3
ObjectDBX Classes
 90
        0
280
     0
281
     0
  0
CLASS
  1
TABLESTYLE
  2
AcDbTableStyle
  3
ObjectDBX Classes
 90
     4095
280
     0
281
     0
  0
CLASS
  1
DICTIONARYVAR
  2
AcDbDictionaryVar
  3
ObjectDBX Classes
 90
        0
280
     0
281
     0
  0
CLASS
  1
ACDBPLACEHOLDER
  2
AcDbPlaceHolder
  3
ObjectDBX Classes
 90
        0
280
     0
281
     0
  0
CLASS
  1
LAYOUT
  2
AcDbLayout
  3
ObjectDBX Classes
 90
        0
280
     0
281
     0
  0
CLASS
  1
DIMASSOC
  2
AcDbDimAssoc
  3
"AcDbDimAssoc|Product Desc:     AcDim ARX App For Dimension|Company:          Autodesk, Inc.|WEB Address:      www.autodesk.com"
 90
    32768
280
     0
281
     0
  0
CLASS
  1
SORTENTSTABLE
  2
AcDbSortentsTable
  3
ObjectDBX Classes
 90
        0
280
     0
281
     0
  0
CLASS
  1
MATERIAL
  2
AcDbMaterial
  3
ObjectDBX Classes
 90
     1153
280
     0
281
     0
  0
CLASS
  1
VISUALSTYLE
  2
AcDbVisualStyle
  3
ObjectDBX Classes
 90
     4095
280
     0
281
     0
  0
CLASS
  1
ACAD_EVALUATION_GRAPH
  2
AcDbEvalGraph
  3
ObjectDBX Classes
 90
    33921
280
     0
281
     0
  0
CLASS
  1
ACAECUSTOBJ
  2
AcAeEditorObj
  3
AcAeEditorObj
 90
    33792
280
     0
281
     0
  0
CLASS
  1
ACDB_DYNAMICBLOCKPURGEPREVENTER_VERSION
  2
AcDbDynamicBlockPurgePreventer
  3
ObjectDBX Classes
 90
    33921
280
     0
281
     0
  0
CLASS
  1
SCALE
  2
AcDbScale
  3
ObjectDBX Classes
 90
     1153
280
     0
281
     0
  0
CLASS
  1
MLEADERSTYLE
  2
AcDbMLeaderStyle
  3
ACDB_MLEADERSTYLE_CLASS
 90
     4095
280
     0
281
     0
  0
CLASS
  1
CELLSTYLEMAP
  2
AcDbCellStyleMap
  3
ObjectDBX Classes
 90
     1152
280
     0
281
     0
  0
CLASS
  1
MULTILEADER
  2
AcDbMLeader
  3
ACDB_MLEADER_CLASS
 90
    33793
280
     0
281
     1
  0
CLASS
  1
AEC_REFEDIT_STATUS_TRACKER
  2
AecDbRefEditStatusTracker
  3
AecArchBase70|Product Desc: Autodesk Architectural Desktop 2007 |Company: Autodesk,Inc. |WEB Address: www.autodesk.com
 90
    32897
280
     0
281
     0
  0
CLASS
  1
NPOCOLLECTION
  2
AcDbImpNonPersistentObjectsCollection
  3
ObjectDBX Classes
 90
    33921
280
     0
281
     0
  0
CLASS
  1
IMAGEDEF
  2
AcDbRasterImageDef
  3
ISM
 90
    32768
280
     0
281
     0
  0
CLASS
  1
RASTERVARIABLES
  2
AcDbRasterVariables
  3
ISM
 90
        0
280
     0
281
     0
  0
CLASS
  1
IMAGEDEF_REACTOR
  2
AcDbRasterImageDefReactor
  3
ISM
 90
    32769
280
     0
281
     0
  0
CLASS
  1
IMAGE
  2
AcDbRasterImage
  3
ISM
 90
    34943
280
     0
281
     1
  0
CLASS
  1
ACDB_BLOCKREPRESENTATION_DATA
  2
AcDbBlockRepresentationData
  3
ObjectDBX Classes
 90
    33921
280
     0
281
     0
  0
CLASS
  1
SOLID_BACKGROUND
  2
AcDbSolidBackground
  3
SCENEOE
 90
    36863
280
     0
281
     0
  0
CLASS
  1
EXACXREFPANELOBJECT
  2
ExAcXREFPanelObject
  3
EXAC_ESW
 90
    33793
280
     0
281
     0
  0
CLASS
  1
WIPEOUT
  2
AcDbWipeout
  3
WipeOut|Product Desc: Object Enabler for WipeOut entity | Company: Autodesk, Inc. | WEB Address: www.autodesk.com
 90
    34943
280
     0
281
     1
  0
CLASS
  1
WIPEOUTVARIABLES
  2
AcDbWipeoutVariables
  3
"WipeOut|Product Desc:     WipeOut Dbx Application|Company:          Autodesk, Inc.|WEB Address:      www.autodesk.com"
 90
        0
280
     0
281
     0
  0
CLASS
  1
ARC_DIMENSION
  2
AcDbArcDimension
  3
ObjectDBX Classes
 90
    33793
280
     0
281
     1
  0
CLASS
  1
PDFDEFINITION
  2
AcDbPdfDefinition
  3
ObjectDBX Classes
 90
    33921
280
     0
281
     0
  0
CLASS
  1
PDFUNDERLAY
  2
AcDbPdfReference
  3
ObjectDBX Classes
 90
    36863
280
     0
281
     1
  0
CLASS
  1
ACDBSECTIONVIEWSTYLE
  2
AcDbSectionViewStyle
  3
ObjectDBX Classes
 90
     1025
280
     0
281
     0
  0
CLASS
  1
ACDBDETAILVIEWSTYLE
  2
AcDbDetailViewStyle
  3
ObjectDBX Classes
 90
     1025
280
     0
281
     0
  0
CLASS
  1
BREAKDATA
  2
AcDbBreakData
  3
ObjectDBX Classes
 90
    33792
280
     0
281
     0
  0
CLASS
  1
ACME_DOCUMENT
  2
AcMeDbDoc
  3
AcMeServices
 90
     1024
280
     0
281
     0
  0
CLASS
  1
AMGSETTINGSOBJ
  2
AmgSettingsObj
  3
"AcadM|Product Description: AutoCAD Mechanical|Company: Autodesk, Inc."
 90
     1024
280
     0
281
     0
  0
CLASS
  1
ACMESCOPE
  2
AcMeScope
  3
AcMeServices
 90
     1024
280
     0
281
     0
  0
CLASS
  1
ACMECOMMANDHISTORY
  2
AcMeCommandHistory
  3
AcMeServices
 90
     1024
280
     0
281
     0
  0
CLASS
  1
ACIMSYSVARMAN
  2
AcImSysVarManager
  3
AcMeServices
 90
     1024
280
     0
281
     0
  0
CLASS
  1
ACIMINTSYSVAR
  2
AcImIntSysVar
  3
AcMeServices
 90
     1024
280
     0
281
     0
  0
CLASS
  1
ACMESTATEMGR
  2
AcMeStateMgr
  3
AcMeServices
 90
     1024
280
     0
281
     0
  0
CLASS
  1
ACDBENTITYCACHE
  2
AcMeEntityCache
  3
AcMeServices
 90
     1024
280
     0
281
     0
  0
CLASS
  1
ACGREFMASTER
  2
AcGrefMaster
  3
AcAttribServices
 90
     1024
280
     0
281
     0
  0
CLASS
  1
ACME_DATABASE
  2
AcMeDbDatabase
  3
AcMeServices
 90
     1024
280
     0
281
     0
  0
CLASS
  1
ACRFINSADJUSTERMGR
  2
AcRfInsAdjusterMgr
  3
AcMeServices
 90
     1024
280
     0
281
     0
  0
CLASS
  1
ACGREFACADMASTER
  2
AcGrefacadMaster
  3
AcGrefServices
 90
     1024
280
     0
281
     0
  0
CLASS
  1
AMDTMENUSTATEMGR
  2
AmdtMenuStateMgr
  3
McadcomServices
 90
     1024
280
     0
281
     0
  0
CLASS
  1
AMDTMCOMMENUSTATE
  2
AmdtMcomMenuState
  3
McadcomServices
 90
     1024
280
     0
281
     0
  0
CLASS
  1
AMIMASTER
  2
AmiMaster
  3
AmiServices
 90
     1024
280
     0
281
     0
  0
CLASS
  1
MAPIAMMOUDLE
  2
MApiAmModule
  3
MApiAmServices
 90
     1024
280
     0
281
     0
  0
CLASS
  1
ACIMSTRSYSVAR
  2
AcImStrSysVar
  3
AcMeServices
 90
     1024
280
     0
281
     0
  0
CLASS
  1
AMDTAMMENUSTATE
  2
AmdtAmMenuState
  3
DesignerAssemblies
 90
     1024
280
     0
281
     0
  0
CLASS
  1
ACAMPROJECT
  2
AcAmProject
  3
DesignerAssemblies
 90
     1024
280
     0
281
     0
  0
CLASS
  1
ACAMGRCOMPDEF
  2
AcAmGrCompDef
  3
DesignerAssemblies
 90
     1024
280
     0
281
     0
  0
CLASS
  1
ACAMCOMPDEF
  2
AcAmCompDef
  3
DesignerAssemblies
 90
     1024
280
     0
281
     0
  0
CLASS
  1
ACAMCOMPDEFMGR
  2
AcAmCompDefMgr
  3
DesignerAssemblies
 90
     1024
280
     0
281
     0
  0
CLASS
  1
AMCONTEXTMGR
  2
AcAmContextMgr
  3
DesignerAssemblies
 90
     1024
280
     0
281
     0
  0
CLASS
  1
ACAMCONTEXTMODELER
  2
AcAmContextModeler
  3
DesignerAssemblies
 90
     1024
280
     0
281
     0
  0
CLASS
  1
ACMDATADICTIONARY
  2
AcmDataDictionary
  3
"AcmSymBB|Product Description: AutoCAD Mechanical|Company: Autodesk, Inc."
 90
     1024
280
     0
281
     0
  0
CLASS
  1
ACAMGRCOMPDEFSET
  2
AcAmGrCompDefSet
  3
DesignerAssemblies
 90
     1024
280
     0
281
     0
  0
CLASS
  1
AMDTBROWSERDBTAB
  2
AmdtBrowserDbTab
  3
McadcomServices
 90
     1024
280
     0
281
     0
  0
CLASS
  1
CBROWSERAPPOBJECT
  2
CBrowserAppObject
  3
McadcomServices
 90
     1024
280
     0
281
     0
  0
CLASS
  1
DM_PLACEHOLDER
  2
AcDmSelsetPlaceholder
  3
McadcomServices
 90
     1024
280
     0
281
     0
  0
CLASS
  1
ACMSTANDARDDIN
  2
AcmStandardDIN
  3
"Amdt_StdImp|Product Description: AutoCAD Mechanical|Company: Autodesk, Inc."
 90
     1024
280
     0
281
     0
  0
CLASS
  1
AMDTEDGESTANDARDDIN13715
  2
AmdtEdgeStdDIN13715
  3
"Amdt_StdImp|Product Description: AutoCAD Mechanical|Company: Autodesk, Inc."
 90
     1024
280
     0
281
     0
  0
CLASS
  1
ACMSURFSTANDARDDIN2002
  2
AcmSurfTextStdDIN2002
  3
"Amdt_StdImp|Product Description: AutoCAD Mechanical|Company: Autodesk, Inc."
 90
     1024
280
     0
281
     0
  0
CLASS
  1
ACMFCFSTANDARDDIN2008
  2
AcmFCFStdDIN2008
  3
"Amdt_StdImp|Product Description: AutoCAD Mechanical|Company: Autodesk, Inc."
 90
     1024
280
     0
281
     0
  0
CLASS
  1
ACMWELDSTANDARDDIN
  2
AcmWeldingStdDIN
  3
"Amdt_StdImp|Product Description: AutoCAD Mechanical|Company: Autodesk, Inc."
 90
     1024
280
     0
281
     0
  0
CLASS
  1
ACMIDSTANDARDDIN2012
  2
AcmIdStdDIN2012
  3
"Amdt_StdImp|Product Description: AutoCAD Mechanical|Company: Autodesk, Inc."
 90
     1024
280
     0
281
     0
  0
CLASS
  1
ACMDATUMSTANDARDDIN2008
  2
AcmDatumStdDIN2008
  3
"Amdt_StdImp|Product Description: AutoCAD Mechanical|Company: Autodesk, Inc."
 90
     1024
280
     0
281
     0
  0
CLASS
  1
ACMBOMSTANDARDDIN
  2
AcmBOMStdDIN
  3
"Amdt_StdImp|Product Description: AutoCAD Mechanical|Company: Autodesk, Inc."
 90
     1024
280
     0
281
     0
  0
CLASS
  1
ACMDETAILSTANDARDDIN
  2
AmdtDetailSymStdDIN
  3
"Amdt_StdImp|Product Description: AutoCAD Mechanical|Company: Autodesk, Inc."
 90
     1024
280
     0
281
     0
  0
CLASS
  1
ACMSECTIONSTANDARDDIN
  2
AmdtSectionSymStdDIN
  3
"Amdt_StdImp|Product Description: AutoCAD Mechanical|Company: Autodesk, Inc."
 90
     1024
280
     0
281
     0
  0
CLASS
  1
ACMCENTERLINESTANDARDDIN
  2
AmdtCenterLineStdDIN
  3
"Amdt_StdImp|Product Description: AutoCAD Mechanical|Company: Autodesk, Inc."
 90
     1024
280
     0
281
     0
  0
CLASS
  1
ACMTHREADLINESTANDARDDIN
  2
AmdtThreadLineStdDIN
  3
"Amdt_StdImp|Product Description: AutoCAD Mechanical|Company: Autodesk, Inc."
 90
     1024
280
     0
281
     0
  0
CLASS
  1
ACMNOTESTANDARDDIN
  2
AmdtNoteStdDIN
  3
"Amdt_StdImp|Product Description: AutoCAD Mechanical|Company: Autodesk, Inc."
 90
     1024
280
     0
281
     0
  0
CLASS
  1
ACMTAPERSTANDARDDIN
  2
AcmTaperStdDIN
  3
"Amdt_StdImp|Product Description: AutoCAD Mechanical|Company: Autodesk, Inc."
 90
     1024
280
     0
281
     0
  0
CLASS
  1
ACMANOOTATIONVIEWSTANDARDDIN
  2
AmdtAnViewStdDIN
  3
"Amdt_StdImp|Product Description: AutoCAD Mechanical|Company: Autodesk, Inc."
 90
     1024
280
     0
281
     0
  0
CLASS
  1
ACAMGLAYSTD
  2
AcAmgLayStd
  3
"AmgLay|Product Description: AutoCAD Mechanical|Company: Autodesk, Inc."
 90
     1024
280
     0
281
     0
  0
CLASS
  1
ACAMGDIMSTD
  2
AcAmgDimStd
  3
"AmgDim|Product Description: AutoCAD Mechanical|Company: Autodesk, Inc."
 90
     1024
280
     0
281
     0
  0
CLASS
  1
AMGOBJPROPCFG
  2
AmgObjPropCfg
  3
"AmgLay|Product Description: AutoCAD Mechanical|Company: Autodesk, Inc."
 90
     1024
280
     0
281
     0
  0
CLASS
  1
ACAMGHOLECHARTSTDDIN
  2
AcAmgHoleChartStdDIN
  3
AmgDim|Product Description: AutoCAD Mechanical|Company: Autodesk, Inc.
 90
     1024
280
     0
281
     0
  0
CLASS
  1
ACAMGTITLESTD
  2
AcAmgTitleStd
  3
"AmgTitle|Product Description: AutoCAD Mechanical|Company: Autodesk, Inc."
 90
     1024
280
     0
281
     0
  0
CLASS
  1
ACMSECTIONSTANDARDCUSTOM
  2
AmdtSectionSymStdCustom
  3
"Amdt_StdImp|Product Description: AutoCAD Mechanical|Company: Autodesk, Inc."
 90
     1024
280
     0
281
     0
  0
CLASS
  1
ACMDETAILTANDARDCUSTOM
  2
AmdtDetailSymStdCustom
  3
"Amdt_StdImp|Product Description: AutoCAD Mechanical|Company: Autodesk, Inc."
 90
     1024
280
     0
281
     0
  0
CLASS
  1
FIELD
  2
AcDbField
  3
ObjectDBX Classes
 90
     1152
280
     0
281
     0
  0
CLASS
  1
FIELDLIST
  2
AcDbFieldList
  3
ObjectDBX Classes
 90
     1152
280
     0
281
     0
  0
CLASS
  1
AMDTNOTETEMPLATEDB
  2
AmdtNoteTemplateDB
  3
AcmSymBB|Product Description: AutoCAD Mechanical|Company: Autodesk, Inc.
 90
     1024
280
     0
281
     0
  0
CLASS
  1
ACAMGFILTERDAT
  2
AcAmgFilterDat
  3
"AcadM|Product Description: AutoCAD Mechanical|Company: Autodesk, Inc."
 90
    33792
280
     0
281
     0
  0
CLASS
  1
DBCOLOR
  2
AcDbColor
  3
ObjectDBX Classes
 90
        0
280
     0
281
     0
  0
CLASS
  1
CAMSSTRUCTBTNSTATE
  2
StructBtnState
  3
DesignerAssemblies
 90
     1024
280
     0
281
     0
  0
CLASS
  1
ACMDATAENTRYBLOCK
  2
AcmDataEntryBlock
  3
AcmSymBB|Product Description: AutoCAD Mechanical|Company: Autodesk, Inc.
 90
    33792
280
     0
281
     0
  0
CLASS
  1
ACDBASSOCACTION
  2
AcDbAssocAction
  3
ObjectDBX Classes
 90
    33793
280
     0
281
     0
  0
CLASS
  1
ACDBASSOCARRAYACTIONBODY
  2
AcDbAssocArrayActionBody
  3
ObjectDBX Classes
 90
    33793
280
     0
281
     0
  0
CLASS
  1
ACDBASSOCDEPENDENCY
  2
AcDbAssocDependency
  3
ObjectDBX Classes
 90
    33793
280
     0
281
     0
  0
CLASS
  1
ACDBASSOCVERTEXACTIONPARAM
  2
AcDbAssocVertexActionParam
  3
ObjectDBX Classes
 90
    33793
280
     0
281
     0
  0
CLASS
  1
ACDBASSOCEDGEACTIONPARAM
  2
AcDbAssocEdgeActionParam
  3
ObjectDBX Classes
 90
    33793
280
     0
281
     0
  0
CLASS
  1
ACDBASSOCARRAYPATHPARAMETERS
  2
AcDbAssocArrayPathParameters
  3
ObjectDBX Classes
 90
    33793
280
     0
281
     0
  0
CLASS
  1
ACDBASSOCNETWORK
  2
AcDbAssocNetwork
  3
ObjectDBX Classes
 90
    33793
280
     0
281
     0
  0
ENDSEC
  0
SECTION
  2
TABLES
  0
TABLE
  2
VPORT
  5
8
102
{ACAD_XDICTIONARY
360
592E
102
}
330
0
100
AcDbSymbolTable
 70
     1
  0
VPORT
  5
1D8D
330
8
100
AcDbSymbolTableRecord
100
AcDbViewportTableRecord
  2
*Active
 70
     0
 10
0.0
 20
0.0
 11
1.0
 21
1.0
 12
-2609262598.064569
 22
-2523174233.543826
 13
0.0
 23
0.0
 14
10.0
 24
10.0
 15
10.0
 25
10.0
 16
0.0
 26
0.0
 36
1.0
 17
0.0
 27
0.0
 37
0.0
 40
11.24678887127576
 41
2.529255319148936
 42
50.0
 43
0.0
 44
0.0
 50
0.0
 51
0.0
 71
     0
 72
  1000
 73
     1
 74
     3
 75
     0
 76
     0
 77
     0
 78
     0
281
     0
 65
     1
110
0.0
120
0.0
130
0.0
111
1.0
121
0.0
131
0.0
112
0.0
122
1.0
132
0.0
 79
     0
146
0.0
1001
ACAD_NAV_VCDISPLAY
1070
     3
  0
ENDTAB
  0
TABLE
  2
LTYPE
  5
5
330
0
100
AcDbSymbolTable
 70
    14
  0
LTYPE
  5
14
330
5
100
AcDbSymbolTableRecord
100
AcDbLinetypeTableRecord
  2
ByBlock
 70
     0
  3

 72
    65
 73
     0
 40
0.0
  0
LTYPE
  5
15
330
5
100
AcDbSymbolTableRecord
100
AcDbLinetypeTableRecord
  2
ByLayer
 70
     0
  3

 72
    65
 73
     0
 40
0.0
  0
LTYPE
  5
16
330
5
100
AcDbSymbolTableRecord
100
AcDbLinetypeTableRecord
  2
Continuous
 70
     0
  3
Solid line
 72
    65
 73
     0
 40
0.0
  0
LTYPE
  5
5424D
330
5
100
AcDbSymbolTableRecord
100
AcDbLinetypeTableRecord
  2
Amconstr
 70
     0
  3
_______________________
 72
    65
 73
     2
 40
9999.0
 49
9999.0
 74
     0
 49
0.0
 74
     0
  0
LTYPE
  5
5424E
330
5
100
AcDbSymbolTableRecord
100
AcDbLinetypeTableRecord
  2
Amzigzag
 70
     0
  3
/\/-/\/-/\/-/\/-/\/-/\/
 72
    65
 73
     2
 40
11.0001
 49
0.0001
 74
     4
 75
   136
340
54269
 46
0.04
 50
0.0
 44
0.0
 45
0.0
 49
-11.0
 74
     0
  0
LTYPE
  5
5424F
330
5
100
AcDbSymbolTableRecord
100
AcDbLinetypeTableRecord
  2
AM_DIN_F_W050
 70
     0
  3
__ __ __ __ __ __ __ __ __ __ __ __ __ __ __
 72
    65
 73
     2
 40
6.25
 49
4.75
 74
     0
 49
-1.5
 74
     0
  0
LTYPE
  5
54250
330
5
100
AcDbSymbolTableRecord
100
AcDbLinetypeTableRecord
  2
AM_DIN_G_W050
 70
     0
  3
____ . ____ . ____ . ____ . ____ . ____ . ____
 72
    65
 73
     4
 40
13.75
 49
9.75
 74
     0
 49
-1.5
 74
     0
 49
1.0
 74
     0
 49
-1.5
 74
     0
  0
LTYPE
  5
54251
330
5
100
AcDbSymbolTableRecord
100
AcDbLinetypeTableRecord
  2
AM_DIN_K_W050
 70
     0
  3
_____ . . _____ . . _____ . . ____ .. ____
 72
    65
 73
     6
 40
16.25
 49
9.75
 74
     0
 49
-1.5
 74
     0
 49
1.0
 74
     0
 49
-1.5
 74
     0
 49
1.0
 74
     0
 49
-1.5
 74
     0
  0
LTYPE
  5
54252
330
5
100
AcDbSymbolTableRecord
100
AcDbLinetypeTableRecord
  2
AM_DIN_G_W050x2
 70
     0
  3
__ . __ . __ . __ . __ . __
 72
    65
 73
     4
 40
6.875
 49
4.75
 74
     0
 49
-0.875
 74
     0
 49
0.375
 74
     0
 49
-0.875
 74
     0
  0
LTYPE
  5
54253
330
5
100
AcDbSymbolTableRecord
100
AcDbLinetypeTableRecord
  2
AM_DIN_F_W050x2
 70
     0
  3
 _ _ _ _ _ _ _ _ _ _ _ _
 72
    65
 73
     2
 40
3.125
 49
2.25
 74
     0
 49
-0.875
 74
     0
  0
LTYPE
  5
54254
330
5
100
AcDbSymbolTableRecord
100
AcDbLinetypeTableRecord
  2
ACDINWELD
 70
     0
  3
_ _ _ _ _
 72
    65
 73
     2
 40
2.0
 49
2.0
 74
     0
 49
-1.0
 74
     0
  0
LTYPE
  5
54255
330
5
100
AcDbSymbolTableRecord
100
AcDbLinetypeTableRecord
  2
ACDINTGL
 70
     0
  3
_ _ _ _ _
 72
    65
 73
     2
 40
3.0
 49
2.0
 74
     0
 49
-1.0
 74
     0
  0
LTYPE
  5
54256
330
5
100
AcDbSymbolTableRecord
100
AcDbLinetypeTableRecord
  2
ACDINTGB
 70
     0
  3
__ . . __ . .
 72
    65
 73
     6
 40
9.0
 49
4.0
 74
     0
 49
-1.0
 74
     0
 49
1.0
 74
     0
 49
-1.0
 74
     0
 49
1.0
 74
     0
 49
-1.0
 74
     0
  0
LTYPE
  5
86E2C
330
5
100
AcDbSymbolTableRecord
100
AcDbLinetypeTableRecord
  2
HIDDEN
 70
     0
  3
Hidden __ __ __ __ __ __ __ __ __ __ __ __ __ __
 72
    65
 73
     2
 40
9.525
 49
6.349999999999999
 74
     0
 49
-3.174999999999999
 74
     0
  0
LTYPE
  5
86E2D
330
5
100
AcDbSymbolTableRecord
100
AcDbLinetypeTableRecord
  2
PHANTOM2
 70
     0
  3
Phantom (.5x) ___ _ _ ___ _ _ ___ _ _ ___ _ _
 72
    65
 73
     6
 40
31.75
 49
15.875
 74
     0
 49
-3.174999999999999
 74
     0
 49
3.174999999999999
 74
     0
 49
-3.174999999999999
 74
     0
 49
3.174999999999999
 74
     0
 49
-3.174999999999999
 74
     0
  0
LTYPE
  5
86E2E
330
5
100
AcDbSymbolTableRecord
100
AcDbLinetypeTableRecord
  2
CENTER
 70
     0
  3
Center ____ _ ____ _ ____ _ ____ _ ____ _ ____
 72
    65
 73
     4
 40
50.8
 49
31.75
 74
     0
 49
-6.349999999999999
 74
     0
 49
6.349999999999999
 74
     0
 49
-6.349999999999999
 74
     0
  0
ENDTAB
  0
TABLE
  2
LAYER
  5
2
102
{ACAD_XDICTIONARY
360
48
102
}
330
0
100
AcDbSymbolTable
 70
     6
  0
LAYER
  5
10
102
{ACAD_XDICTIONARY
360
253B
102
}
330
2
100
AcDbSymbolTableRecord
100
AcDbLayerTableRecord
  2
0
 70
     0
 62
     7
  6
Continuous
370
    -3
390
F
  0
LAYER
  5
3F
102
{ACAD_XDICTIONARY
360
2549
102
}
330
2
100
AcDbSymbolTableRecord
100
AcDbLayerTableRecord
  2
Kontur 18
 70
     0
 62
     1
  6
Continuous
370
    18
390
F
1001
AcAecLayerStandard
1000

1000

  0
LAYER
  5
32AF3
102
{ACAD_XDICTIONARY
360
32AF4
102
}
330
2
100
AcDbSymbolTableRecord
100
AcDbLayerTableRecord
  2
Bemaßung
 70
     0
 62
     9
  6
Continuous
370
     5
390
F
1001
AcAecLayerStandard
1000

1000

  0
LAYER
  5
517C8
102
{ACAD_XDICTIONARY
360
517C9
102
}
330
2
100
AcDbSymbolTableRecord
100
AcDbLayerTableRecord
  2
Text
 70
     0
 62
     3
  6
Continuous
370
    25
390
F
1001
AcAecLayerStandard
1000

1000

  0
LAYER
  5
53613
330
2
100
AcDbSymbolTableRecord
100
AcDbLayerTableRecord
  2
ESF_Spielgeraet
 70
     0
 62
     7
  6
Continuous
370
    15
390
F
1001
AcAecLayerStandard
1000

1000

1001
ACCMTRANSPARENCY
1071
        0
  0
LAYER
  5
84F5A
330
2
100
AcDbSymbolTableRecord
100
AcDbLayerTableRecord
  2
Defpoints
 70
     0
 62
     7
  6
Continuous
290
     0
370
    -3
390
F
  0
ENDTAB
  0
TABLE
  2
STYLE
  5
3
330
0
100
AcDbSymbolTable
 70
     6
  0
STYLE
  5
11
330
3
100
AcDbSymbolTableRecord
100
AcDbTextStyleTableRecord
  2
Standard
 70
     0
 40
0.0
 41
1.0
 50
0.0
 71
     0
 42
150.0
  3
tahoma.ttf
  4

1001
ACAD
1000
Tahoma
1071
       34
  0
STYLE
  5
BA8
330
3
100
AcDbSymbolTableRecord
100
AcDbTextStyleTableRecord
  2
100
 70
     0
 40
100.0
 41
1.0
 50
0.0
 71
     0
 42
150.0
  3
tahoma.ttf
  4

1001
ACAD
1000
Tahoma
1071
       34
  0
STYLE
  5
51980
330
3
100
AcDbSymbolTableRecord
100
AcDbTextStyleTableRecord
  2
2.5
 70
     0
 40
2.5
 41
1.0
 50
0.0
 71
     0
 42
2.5
  3
arial.ttf
  4

1001
ACAD
1000
Arial
1071
       34
  0
STYLE
  5
54269
330
3
100
AcDbSymbolTableRecord
100
AcDbTextStyleTableRecord
  2

 70
     1
 40
0.0
 41
1.0
 50
0.0
 71
     0
 42
100.0
  3
genltshp.shx
  4

  0
STYLE
  5
5426A
330
3
100
AcDbSymbolTableRecord
100
AcDbTextStyleTableRecord
  2
ACDINGDT
 70
     0
 40
0.0
 41
1.0
 50
0.0
 71
     0
 42
100.0
  3
amgdt.shx
  4

  0
STYLE
  5
57949
330
3
100
AcDbSymbolTableRecord
100
AcDbTextStyleTableRecord
  2
Norm
 70
     0
 40
0.0
 41
1.0
 50
0.0
 71
     0
 42
0.2
  3
txt
  4

  0
ENDTAB
  0
TABLE
  2
VIEW
  5
6
330
0
100
AcDbSymbolTable
 70
     0
  0
ENDTAB
  0
TABLE
  2
UCS
  5
7
330
0
100
AcDbSymbolTable
 70
     0
  0
ENDTAB
  0
TABLE
  2
APPID
  5
9
330
0
100
AcDbSymbolTable
 70
    41
  0
APPID
  5
12
330
9
100
AcDbSymbolTableRecord
100
AcDbRegAppTableRecord
  2
ACAD
 70
     0
  0
APPID
  5
2F
330
9
100
AcDbSymbolTableRecord
100
AcDbRegAppTableRecord
  2
ACAD_PSEXT
 70
     0
  0
APPID
  5
39
330
9
100
AcDbSymbolTableRecord
100
AcDbRegAppTableRecord
  2
AcAecLayerStandard
 70
     0
  0
APPID
  5
1DB7
330
9
100
AcDbSymbolTableRecord
100
AcDbRegAppTableRecord
  2
ACAD_EXEMPT_FROM_CAD_STANDARDS
 70
     0
  0
APPID
  5
2091
330
9
100
AcDbSymbolTableRecord
100
AcDbRegAppTableRecord
  2
ACAUTHENVIRON
 70
     0
  0
APPID
  5
2096
330
9
100
AcDbSymbolTableRecord
100
AcDbRegAppTableRecord
  2
AcDbDynamicBlockTrueName
 70
     0
  0
APPID
  5
2097
330
9
100
AcDbSymbolTableRecord
100
AcDbRegAppTableRecord
  2
AcDbDynamicBlockGUID
 70
     0
  0
APPID
  5
2099
330
9
100
AcDbSymbolTableRecord
100
AcDbRegAppTableRecord
  2
AcDbBlockRepETag
 70
     0
  0
APPID
  5
2115
330
9
100
AcDbSymbolTableRecord
100
AcDbRegAppTableRecord
  2
ACAD_DSTYLE_DIMTEXT_FILL
 70
     0
  0
APPID
  5
2116
330
9
100
AcDbSymbolTableRecord
100
AcDbRegAppTableRecord
  2
AcDbBlockRepBTag
 70
     0
  0
APPID
  5
252F
330
9
100
AcDbSymbolTableRecord
100
AcDbRegAppTableRecord
  2
ACAD_MLEADERVER
 70
     0
  0
APPID
  5
257F
330
9
100
AcDbSymbolTableRecord
100
AcDbRegAppTableRecord
  2
ACAD_DSTYLE_DIMJAG
 70
     0
  0
APPID
  5
2580
330
9
100
AcDbSymbolTableRecord
100
AcDbRegAppTableRecord
  2
ACAD_DSTYLE_DIMTALN
 70
     0
  0
APPID
  5
26EC
330
9
100
AcDbSymbolTableRecord
100
AcDbRegAppTableRecord
  2
ACADANNOAV
 70
     0
  0
APPID
  5
2738
330
9
100
AcDbSymbolTableRecord
100
AcDbRegAppTableRecord
  2
ACAD_DSTYLE_DIMBREAK
 70
     0
  0
APPID
  5
273B
330
9
100
AcDbSymbolTableRecord
100
AcDbRegAppTableRecord
  2
AcadAnnoPO
 70
     0
  0
APPID
  5
828C
330
9
100
AcDbSymbolTableRecord
100
AcDbRegAppTableRecord
  2
AcadAnnotative
 70
     0
  0
APPID
  5
C44A
330
9
100
AcDbSymbolTableRecord
100
AcDbRegAppTableRecord
  2
ACAD_DSTYLE_DIMRADIAL_EXTENSION
 70
     0
  0
APPID
  5
CB35
330
9
100
AcDbSymbolTableRecord
100
AcDbRegAppTableRecord
  2
GradientColor1ACI
 70
     0
  0
APPID
  5
CB36
330
9
100
AcDbSymbolTableRecord
100
AcDbRegAppTableRecord
  2
GradientColor2ACI
 70
     0
  0
APPID
  5
12C71
330
9
100
AcDbSymbolTableRecord
100
AcDbRegAppTableRecord
  2
ACCMTRANSPARENCY
 70
     0
  0
APPID
  5
2268C
330
9
100
AcDbSymbolTableRecord
100
AcDbRegAppTableRecord
  2
ADESKUNDERLAYLAYEROVERRIDEDATA
 70
     0
  0
APPID
  5
31C07
330
9
100
AcDbSymbolTableRecord
100
AcDbRegAppTableRecord
  2
ACAD_NAV_VCDISPLAY
 70
     0
  0
APPID
  5
389C3
330
9
100
AcDbSymbolTableRecord
100
AcDbRegAppTableRecord
  2
MCAD_NO_VIS
 70
     0
  0
APPID
  5
389C4
330
9
100
AcDbSymbolTableRecord
100
AcDbRegAppTableRecord
  2
ACAD_TEMP_GRAPHIC
 70
     0
  0
APPID
  5
389C5
330
9
100
AcDbSymbolTableRecord
100
AcDbRegAppTableRecord
  2
ACATTRIBSERVICES
 70
     0
  0
APPID
  5
389C6
330
9
100
AcDbSymbolTableRecord
100
AcDbRegAppTableRecord
  2
DESIGNERASSEMBLIES
 70
     0
  0
APPID
  5
389C7
330
9
100
AcDbSymbolTableRecord
100
AcDbRegAppTableRecord
  2
GENIUS_GENSCREG_15
 70
     0
  0
APPID
  5
389C8
330
9
100
AcDbSymbolTableRecord
100
AcDbRegAppTableRecord
  2
GENIUS_GENOBJ-N-SDF_13
 70
     0
  0
APPID
  5
389C9
330
9
100
AcDbSymbolTableRecord
100
AcDbRegAppTableRecord
  2
GENIUS_GENODEF_13
 70
     0
  0
APPID
  5
53756
330
9
100
AcDbSymbolTableRecord
100
AcDbRegAppTableRecord
  2
GENIUS_GENREC_14
 70
     0
  0
APPID
  5
53757
330
9
100
AcDbSymbolTableRecord
100
AcDbRegAppTableRecord
  2
GENIUS_GENOBJ-N-REC_13
 70
     0
  0
APPID
  5
54278
330
9
100
AcDbSymbolTableRecord
100
AcDbRegAppTableRecord
  2
ACAD_DSTYLE_DIMINSPECT
 70
     0
  0
APPID
  5
54279
330
9
100
AcDbSymbolTableRecord
100
AcDbRegAppTableRecord
  2
GENIUS_GENOBJ-N-FIL_13
 70
     0
  0
APPID
  5
832FA
330
9
100
AcDbSymbolTableRecord
100
AcDbRegAppTableRecord
  2
AVE_RENDER
 70
     0
  0
APPID
  5
832FB
330
9
100
AcDbSymbolTableRecord
100
AcDbRegAppTableRecord
  2
AVE_MATERIAL
 70
     0
  0
APPID
  5
8533F
330
9
100
AcDbSymbolTableRecord
100
AcDbRegAppTableRecord
  2
HATCHBACKGROUNDCOLOR
 70
     0
  0
APPID
  5
86ECD
330
9
100
AcDbSymbolTableRecord
100
AcDbRegAppTableRecord
  2
ACAD_DSTYLE_DIMJOGGED_JOGANGLE_SYMBOL
 70
     0
  0
APPID
  5
86ECE
330
9
100
AcDbSymbolTableRecord
100
AcDbRegAppTableRecord
  2
ACAD_DSTYLE_DIM_LINETYPE
 70
     0
  0
APPID
  5
86ECF
330
9
100
AcDbSymbolTableRecord
100
AcDbRegAppTableRecord
  2
ACAD_DSTYLE_DIM_EXT1_LINETYPE
 70
     0
  0
APPID
  5
86ED0
330
9
100
AcDbSymbolTableRecord
100
AcDbRegAppTableRecord
  2
ACAD_DSTYLE_DIM_EXT2_LINETYPE
 70
     0
  0
ENDTAB
  0
TABLE
  2
DIMSTYLE
  5
A
330
0
100
AcDbSymbolTable
 70
    10
100
AcDbDimStyleTable
 71
     1
340
37FBB
  0
DIMSTYLE
105
37FBB
330
A
100
AcDbSymbolTableRecord
100
AcDbDimStyleTableRecord
  2
1
 70
     0
 41
1.0
 42
1.0
 43
1.0
 44
1.0
 46
3.0
 73
     0
 74
     0
 77
     1
 78
     8
140
1.0
141
1.0
143
0.03937007874016
147
1.0
171
     3
172
     1
179
     2
271
     2
272
     2
274
     3
278
    44
283
     0
284
     8
340
11
1001
ACAD_DSTYLE_DIMJAG
1070
   388
1040
1.0
1001
ACAD_DSTYLE_DIMBREAK
1070
   391
1040
1.0
1001
ACAD_DSTYLE_DIMTALN
1070
   392
1070
     0
  0
DIMSTYLE
105
54270
102
{ACAD_REACTORS
330
85286
102
}
330
A
100
AcDbSymbolTableRecord
100
AcDbDimStyleTableRecord
  2
AM_DIN
 70
     0
  4
"
 41
3.5
 42
1.0
 43
10.0
 44
1.0
 47
0.1
 48
0.1
 73
     0
 74
     0
 77
     1
 78
     8
 79
     2
140
3.5
141
0.0
143
0.0393701
146
0.71
147
1.5
172
     1
176
   256
177
   256
178
     2
271
     2
272
     3
274
     4
283
     0
284
     8
340
11
371
    -1
372
    -1
1001
ACAD_DSTYLE_DIMJAG
1070
   388
1040
1.5
1001
ACAD_DSTYLE_DIMBREAK
1070
   391
1040
3.75
1001
ACAD_DSTYLE_DIMJOGGED_JOGANGLE_SYMBOL
1070
   384
1040
1.570796326794896
1001
ACAD_DSTYLE_DIM_LINETYPE
1070
   380
1005
14
1001
ACAD_DSTYLE_DIM_EXT1_LINETYPE
1070
   381
1005
14
1001
ACAD_DSTYLE_DIM_EXT2_LINETYPE
1070
   382
1005
14
  0
DIMSTYLE
105
54271
330
A
100
AcDbSymbolTableRecord
100
AcDbDimStyleTableRecord
  2
AM_DIN$3
 70
     0
  4
"
 41
3.5
 42
1.0
 43
10.0
 44
1.0
 47
0.1
 48
0.1
 73
     0
 77
     1
 78
     8
 79
     2
140
3.5
141
0.0
143
0.0393701
146
0.71
147
1.5
176
   256
177
   256
178
     2
271
     2
272
     3
274
     4
283
     0
284
     8
288
     1
289
     0
340
11
371
    -1
372
    -1
1001
ACAD_DSTYLE_DIMBREAK
1070
   391
1040
3.75
1001
ACAD_DSTYLE_DIMJAG
1070
   388
1040
1.5
1001
ACAD_DSTYLE_DIMJOGGED_JOGANGLE_SYMBOL
1070
   384
1040
1.570796326794896
1001
ACAD_DSTYLE_DIM_LINETYPE
1070
   380
1005
14
1001
ACAD_DSTYLE_DIM_EXT1_LINETYPE
1070
   381
1005
14
1001
ACAD_DSTYLE_DIM_EXT2_LINETYPE
1070
   382
1005
14
  0
DIMSTYLE
105
54272
330
A
100
AcDbSymbolTableRecord
100
AcDbDimStyleTableRecord
  2
AM_DIN$4
 70
     0
  4
"
 41
3.5
 42
1.0
 43
10.0
 44
1.0
 47
0.1
 48
0.1
 73
     0
 77
     1
 78
     8
 79
     2
140
3.5
141
0.0
143
0.0393701
146
0.71
147
1.5
176
   256
177
   256
178
     2
271
     2
272
     3
274
     4
283
     0
284
     8
288
     1
289
     0
340
11
371
    -1
372
    -1
1001
ACAD_DSTYLE_DIMBREAK
1070
   391
1040
3.75
1001
ACAD_DSTYLE_DIMJAG
1070
   388
1040
1.5
1001
ACAD_DSTYLE_DIMJOGGED_JOGANGLE_SYMBOL
1070
   384
1040
1.570796326794896
1001
ACAD_DSTYLE_DIM_LINETYPE
1070
   380
1005
14
1001
ACAD_DSTYLE_DIM_EXT1_LINETYPE
1070
   381
1005
14
1001
ACAD_DSTYLE_DIM_EXT2_LINETYPE
1070
   382
1005
14
  0
DIMSTYLE
105
54273
330
A
100
AcDbSymbolTableRecord
100
AcDbDimStyleTableRecord
  2
AM_DIN$6
 70
     0
  4
"
 41
3.5
 42
1.0
 43
10.0
 44
1.0
 47
0.1
 48
0.1
 73
     0
 74
     0
 78
     8
 79
     2
140
3.5
141
0.0
143
0.0393701
146
0.71
147
1.5
172
     1
176
   256
177
   256
178
     2
271
     2
272
     3
274
     4
283
     0
284
     8
340
11
371
    -1
372
    -1
1001
ACAD_DSTYLE_DIMBREAK
1070
   391
1040
3.75
1001
ACAD_DSTYLE_DIMJAG
1070
   388
1040
1.5
1001
ACAD_DSTYLE_DIMJOGGED_JOGANGLE_SYMBOL
1070
   384
1040
1.570796326794896
1001
ACAD_DSTYLE_DIM_LINETYPE
1070
   380
1005
14
1001
ACAD_DSTYLE_DIM_EXT1_LINETYPE
1070
   381
1005
14
1001
ACAD_DSTYLE_DIM_EXT2_LINETYPE
1070
   382
1005
14
  0
DIMSTYLE
105
54274
330
A
100
AcDbSymbolTableRecord
100
AcDbDimStyleTableRecord
  2
AM_DIN$7
 70
     0
  4
"
 41
3.5
 42
1.0
 43
10.0
 44
1.0
 47
0.1
 48
0.1
 73
     0
 74
     0
 77
     1
 78
     8
 79
     2
140
3.5
141
0.0
143
0.0393701
146
0.71
147
1.5
172
     1
176
   256
177
   256
178
     2
271
     2
272
     3
274
     4
283
     0
284
     8
340
11
371
    -1
372
    -1
1001
ACAD_DSTYLE_DIMBREAK
1070
   391
1040
3.75
1001
ACAD_DSTYLE_DIMJAG
1070
   388
1040
1.5
1001
ACAD_DSTYLE_DIMJOGGED_JOGANGLE_SYMBOL
1070
   384
1040
1.570796326794896
1001
ACAD_DSTYLE_DIM_LINETYPE
1070
   380
1005
14
1001
ACAD_DSTYLE_DIM_EXT1_LINETYPE
1070
   381
1005
14
1001
ACAD_DSTYLE_DIM_EXT2_LINETYPE
1070
   382
1005
14
  0
DIMSTYLE
105
54275
330
A
100
AcDbSymbolTableRecord
100
AcDbDimStyleTableRecord
  2
AM_DIN$SF
 70
     0
  4
"
 41
3.5
 42
1.0
 43
10.0
 44
1.0
 47
0.1
 48
0.1
 73
     0
 74
     0
 75
     1
 76
     1
 77
     1
 78
     8
 79
     2
140
3.5
141
0.0
143
0.0393701
146
0.71
147
1.5
172
     1
176
   256
177
   256
178
     2
271
     2
272
     3
274
     4
283
     0
284
     8
340
11
371
    -1
372
    -1
1001
ACAD_DSTYLE_DIMBREAK
1070
   391
1040
3.75
1001
ACAD_DSTYLE_DIMJAG
1070
   388
1040
1.5
1001
ACAD_DSTYLE_DIMJOGGED_JOGANGLE_SYMBOL
1070
   384
1040
1.570796326794896
1001
ACAD_DSTYLE_DIM_LINETYPE
1070
   380
1005
14
1001
ACAD_DSTYLE_DIM_EXT1_LINETYPE
1070
   381
1005
14
1001
ACAD_DSTYLE_DIM_EXT2_LINETYPE
1070
   382
1005
14
  0
DIMSTYLE
105
54276
330
A
100
AcDbSymbolTableRecord
100
AcDbDimStyleTableRecord
  2
AM_DIN$SH
 70
     0
  4
"
 41
3.5
 42
1.0
 43
10.0
 44
1.0
 47
0.1
 48
0.1
 73
     0
 74
     0
 75
     1
 76
     1
 77
     1
 78
     8
 79
     2
140
3.5
141
0.0
143
0.0393701
144
2.0
146
0.71
147
1.5
172
     1
173
     1
176
   256
177
   256
178
     2
271
     2
272
     3
274
     4
283
     0
284
     8
340
11
343
53F57
371
    -1
372
    -1
1001
ACAD_DSTYLE_DIMBREAK
1070
   391
1040
3.75
1001
ACAD_DSTYLE_DIMJAG
1070
   388
1040
1.5
1001
ACAD_DSTYLE_DIMJOGGED_JOGANGLE_SYMBOL
1070
   384
1040
1.570796326794896
1001
ACAD_DSTYLE_DIM_LINETYPE
1070
   380
1005
14
1001
ACAD_DSTYLE_DIM_EXT1_LINETYPE
1070
   381
1005
14
1001
ACAD_DSTYLE_DIM_EXT2_LINETYPE
1070
   382
1005
14
  0
DIMSTYLE
105
577D2
330
A
100
AcDbSymbolTableRecord
100
AcDbDimStyleTableRecord
  2
AM_DIN$0
 70
     0
  4
"
 41
3.5
 42
1.0
 43
10.0
 44
1.0
 47
0.1
 48
0.1
 73
     0
 74
     0
 77
     1
 78
     8
 79
     2
140
3.5
141
0.0
143
0.0393701
146
0.71
147
1.5
172
     1
176
   256
177
   256
178
     2
271
     2
272
     3
274
     4
283
     0
284
     8
340
11
371
    -1
372
    -1
1001
ACAD_DSTYLE_DIMBREAK
1070
   391
1040
3.75
1001
ACAD_DSTYLE_DIMJAG
1070
   388
1040
1.5
1001
ACAD_DSTYLE_DIMJOGGED_JOGANGLE_SYMBOL
1070
   384
1040
1.570796326794896
1001
ACAD_DSTYLE_DIM_LINETYPE
1070
   380
1005
14
1001
ACAD_DSTYLE_DIM_EXT1_LINETYPE
1070
   381
1005
14
1001
ACAD_DSTYLE_DIM_EXT2_LINETYPE
1070
   382
1005
14
  0
DIMSTYLE
105
84F60
330
A
100
AcDbSymbolTableRecord
100
AcDbDimStyleTableRecord
  2
AM_DIN$2
 70
     0
  4
"
 41
10.0
 42
1.0
 43
10.0
 44
1.0
 47
0.1
 48
0.1
 73
     0
 74
     0
 77
     1
 78
     8
 79
     2
140
10.0
141
0.0
143
0.0393701
146
0.71
147
3.0
172
     1
176
     7
177
     7
178
     7
271
     2
272
     2
283
     0
284
     8
340
11
371
    -1
372
    -1
1001
ACAD_DSTYLE_DIMBREAK
1070
   391
1040
3.75
1001
ACAD_DSTYLE_DIMJAG
1070
   388
1040
1.5
1001
ACAD_DSTYLE_DIMTALN
1070
   392
1070
     0
1001
ACAD_DSTYLE_DIMJOGGED_JOGANGLE_SYMBOL
1070
   384
1040
1.570796326794896
1001
ACAD_DSTYLE_DIM_LINETYPE
1070
   380
1005
14
1001
ACAD_DSTYLE_DIM_EXT1_LINETYPE
1070
   381
1005
14
1001
ACAD_DSTYLE_DIM_EXT2_LINETYPE
1070
   382
1005
14
  0
ENDTAB
  0
TABLE
  2
BLOCK_RECORD
  5
1
330
0
100
AcDbSymbolTable
 70
     5
  0
BLOCK_RECORD
  5
23
102
{ACAD_XDICTIONARY
360
1FDD
102
}
330
1
100
AcDbSymbolTableRecord
100
AcDbBlockTableRecord
  2
*Model_Space
340
26
  0
BLOCK_RECORD
  5
31D04
330
1
100
AcDbSymbolTableRecord
100
AcDbBlockTableRecord
  2
*Paper_Space
340
31D05
  0
BLOCK_RECORD
  5
5198F
102
{ACAD_XDICTIONARY
360
51991
102
}
330
1
100
AcDbSymbolTableRecord
100
AcDbBlockTableRecord
  2
Eigentum
340
0
310
28000000200000002000000001002000000000000010000001000000010000000000000000000000302821FF302821FF302821FF302821FF302821FF302821FF302821FF302821FF302821FF302821FF302821FF302821FF302821FF302821FF302821FF302821FF302821FF302821FF302821FF302821FF302821FF302821
310
FF302821FF302821FF302821FF302821FF302821FF302821FF302821FF302821FF302821FF302821FF302821FF302821FF302821FF302821FF302821FF302821FF302821FF302821FF302821FF302821FF302821FF302821FF302821FF302821FF302821FF302821FF302821FF302821FF302821FF302821FF302821FF3028
310
21FF302821FF302821FF302821FF302821FF302821FF302821FF302821FF302821FF302821FF302821FF302821FF302821FF302821FF302821FF302821FF302821FF302821FF302821FF302821FF302821FF302821FF302821FF302821FF302821FF302821FF302821FF302821FF302821FF302821FF302821FF302821FF30
310
2821FF302821FF302821FF302821FF302821FF302821FF302821FF302821FF302821FF302821FF302821FF302821FF302821FF302821FF302821FF302821FF302821FF302821FF302821FF302821FF302821FF302821FF302821FF302821FF302821FF302821FF302821FF302821FF302821FF302821FF302821FF302821FF
310
302821FF302821FF302821FF302821FF302821FF302821FF302821FF302821FF302821FF302821FF302821FF302821FF302821FF302821FF302821FF302821FF302821FF302821FF302821FF302821FF302821FF302821FF302821FF302821FF302821FF302821FF302821FF302821FF302821FF302821FF302821FF302821
310
FF302821FF302821FF302821FF302821FF302821FF302821FF302821FF302821FF302821FF302821FF302821FF302821FF302821FF302821FF302821FF302821FF302821FF302821FF302821FF302821FF302821FF302821FF302821FF302821FF302821FF302821FF302821FF302821FF302821FF302821FF302821FF3028
310
21FF302821FF302821FF302821FF302821FF302821FF302821FF302821FF302821FF302821FF302821FF302821FF302821FF302821FF302821FF302821FF302821FF302821FF302821FF302821FF302821FF302821FF302821FF302821FF302821FF302821FF302821FF302821FF302821FF302821FF302821FF302821FF30
310
2821FF302821FF302821FF302821FF302821FF302821FF302821FF302821FF302821FF302821FF302821FF302821FF302821FF302821FF302821FF302821FF302821FF302821FF302821FF302821FF302821FF302821FF302821FF302821FF302821FF302821FF302821FF302821FF302821FF302821FF302821FF302821FF
310
302821FF302821FF302821FF302821FF302821FF302821FF302821FF302821FF302821FF302821FF302821FF302821FF302821FF302821FF302821FF302821FF302821FF302821FF302821FF302821FF302821FF302821FF302821FF302821FF302821FF302821FF302821FF302821FF302821FF302821FF302821FF302821
310
FF302821FF302821FF302821FF302821FF302821FF302821FF302821FF302821FF302821FF302821FF302821FF302821FF302821FF302821FF302821FF302821FF302821FF302821FF302821FF302821FF302821FF302821FF302821FF302821FF302821FF302821FF302821FF302821FF302821FF302821FF302821FF3028
310
21FF302821FF302821FF302821FF302821FF302821FF302821FF302821FF302821FF302821FF302821FF302821FF302821FF302821FF00FF00FF00FF00FF00FF00FF00FF00FF00FF00FF00FF00FF00FF00FF00FF00FF00FF00FF00FF00FF00FF00FF00FF00FF00FF00FF00FF00FF00FF00FF00FF00FF00FF00FF00FF00FF00
310
FF00FF00FF00FF00FF00FF00FF00FF00FF00FF00FF00FF00FF00FF00FF00FF00FF00FF302821FF302821FF302821FF302821FF302821FF00FF00FF00FF00FF00FF00FF00FF00FF00FF00FF00FF00FF00FF00FF00FF00FF00FF00FF00FF00FF00FF00FF00FF00FF00FF00FF00FF00FF00FF00FF00FF00FF00FF00FF00FF00FF
310
00FF00FF00FF00FF00FF00FF00FF00FF00FF00FF00FF00FF00FF00FF00FF00FF302821FF302821FF302821FF302821FF302821FF302821FF00FF00FF00FF00FF00FF00FF00FF00FF00FF00FF00FF00FF00FF00FF00FF00FF00FF00FF00FF00FF00FF00FF00FF00FF00FF00FF00FF00FF00FF00FF00FF00FF00FF00FF00FF00
310
FF00FF00FF00FF00FF00FF00FF00FF00FF00FF00FF00FF00FF00FF00FF00FF00FF00FF00FF302821FF302821FF302821FF302821FF302821FF00FF00FF00FF00FF00FF00FF00FF00FF00FF00FF00FF00FF00FF00FF00FF00FF00FF00FF00FF00FF00FF00FF00FF00FF00FF00FF00FF00FF00FF00FF00FF00FF00FF00FF00FF
310
00FF00FF00FF00FF00FF00FF00FF00FF00FF00FF00FF00FF00FF00FF00FF00FF00FF00FF00FF00FF00FF00FF00FF302821FF302821FF302821FF00FF00FF00FF00FF00FF00FF00FF00FF00FF00FF00FF00FF00FF00FF00FF00FF00FF00FF00FF00FF00FF00FF00FF00FF00FF00FF00FF00FF00FF00FF00FF00FF00FF00FF00
310
FF00FF00FF00FF00FF00FF00FF00FF00FF00FF00FF00FF00FF00FF00FF00FF00FF00FF00FF00FF302821FF00FF00FF302821FF302821FF302821FF302821FF00FF00FF00FF00FF00FF00FF00FF00FF00FF00FF00FF00FF00FF00FF00FF00FF00FF00FF00FF00FF00FF00FF00FF00FF00FF00FF00FF00FF00FF00FF00FF00FF
310
00FF00FF00FF00FF302821FF302821FF302821FF302821FF302821FF302821FF302821FF302821FF302821FF302821FF302821FF302821FF302821FF302821FF00FF00FF00FF00FF00FF00FF00FF00FF00FF00FF00FF00FF00FF00FF00FF00FF00FF00FF00FF00FF00FF00FF00FF00FF00FF00FF00FF00FF00FF00FF00FF00
310
FF00FF00FF00FF00FF00FF00FF00FF00FF00FF00FF00FF00FF00FF00FF00FF00FF302821FF302821FF302821FF302821FF302821FF302821FF302821FF00FF00FF00FF00FF00FF00FF00FF00FF00FF00FF00FF00FF00FF00FF00FF00FF00FF00FF00FF00FF00FF00FF00FF00FF00FF00FF00FF00FF00FF00FF00FF00FF00FF
310
00FF00FF00FF00FF00FF00FF00FF00FF00FF00FF00FF00FF00FF00FF00FF00FF00FF302821FF302821FF302821FF302821FF302821FF302821FF302821FF00FF00FF00FF00FF00FF00FF00FF00FF00FF00FF00FF00FF00FF00FF00FF00FF00FF00FF00FF00FF00FF00FF00FF00FF00FF00FF00FF00FF00FF00FF00FF00FF00
310
FF00FF00FF00FF302821FF302821FF302821FF302821FF302821FF302821FF302821FF302821FF302821FF302821FF302821FF302821FF302821FF302821FF00FF00FF00FF00FF00FF00FF00FF00FF00FF00FF00FF00FF00FF00FF00FF00FF00FF00FF00FF00FF00FF00FF00FF00FF00FF00FF00FF00FF00FF00FF00FF00FF
310
00FF00FF00FF00FF00FF00FF00FF00FF00FF00FF00FF00FF00FF00FF00FF00FF00FF00FF00FF00FF00FF00FF00FF00FF00FF00FF302821FF302821FF302821FF00FF00FF00FF00FF00FF00FF00FF00FF00FF00FF00FF00FF00FF00FF00FF00FF00FF00FF00FF00FF00FF00FF00FF00FF00FF00FF00FF00FF00FF00FF00FF00
310
FF00FF00FF00FF00FF00FF00FF00FF00FF00FF00FF00FF00FF00FF00FF00FF00FF00FF00FF00FF00FF00FF00FF00FF00FF00FF00FF302821FF302821FF302821FF00FF00FF00FF00FF00FF00FF00FF00FF00FF00FF00FF00FF00FF00FF00FF00FF00FF00FF00FF00FF00FF00FF00FF00FF00FF00FF00FF00FF00FF00FF00FF
310
00FF00FF00FF00FF00FF00FF00FF00FF00FF00FF00FF00FF00FF302821FF302821FF302821FF302821FF302821FF302821FF302821FF302821FF302821FF302821FF302821FF302821FF302821FF302821FF302821FF302821FF302821FF302821FF302821FF302821FF302821FF302821FF302821FF302821FF302821FF30
310
2821FF302821FF302821FF302821FF302821FF302821FF302821FF302821FF302821FF302821FF302821FF302821FF302821FF302821FF302821FF302821FF302821FF302821FF302821FF302821FF302821FF302821FF302821FF302821FF302821FF302821FF302821FF302821FF302821FF302821FF302821FF302821FF
310
302821FF302821FF302821FF302821FF302821FF302821FF302821FF302821FF302821FF302821FF302821FF302821FF302821FF302821FF302821FF302821FF302821FF302821FF302821FF302821FF302821FF302821FF302821FF302821FF302821FF302821FF302821FF302821FF302821FF302821FF302821FF302821
310
FF302821FF302821FF302821FF302821FF302821FF302821FF302821FF302821FF302821FF302821FF302821FF302821FF302821FF302821FF302821FF302821FF302821FF302821FF302821FF302821FF302821FF302821FF302821FF302821FF302821FF302821FF302821FF302821FF302821FF302821FF302821FF3028
310
21FF302821FF302821FF302821FF302821FF302821FF302821FF302821FF302821FF302821FF302821FF302821FF302821FF302821FF302821FF302821FF302821FF302821FF302821FF302821FF302821FF302821FF302821FF302821FF302821FF302821FF302821FF302821FF302821FF302821FF302821FF302821FF30
310
2821FF302821FF302821FF302821FF302821FF302821FF302821FF302821FF302821FF302821FF302821FF302821FF302821FF302821FF302821FF302821FF302821FF302821FF302821FF302821FF302821FF302821FF302821FF302821FF302821FF302821FF302821FF302821FF302821FF302821FF302821FF302821FF
310
302821FF302821FF302821FF302821FF302821FF302821FF302821FF302821FF302821FF302821FF302821FF302821FF302821FF302821FF302821FF302821FF302821FF302821FF302821FF302821FF302821FF302821FF302821FF302821FF302821FF302821FF302821FF302821FF302821FF302821FF302821FF302821
310
FF302821FF302821FF302821FF302821FF302821FF302821FF302821FF302821FF302821FF302821FF302821FF302821FF302821FF302821FF302821FF302821FF302821FF302821FF302821FF302821FF302821FF302821FF302821FF302821FF302821FF302821FF302821FF302821FF302821FF302821FF302821FF3028
310
21FF302821FF302821FF302821FF302821FF302821FF302821FF302821FF302821FF302821FF302821FF302821FF302821FF302821FF302821FF302821FF302821FF302821FF302821FF302821FF302821FF302821FF302821FF302821FF302821FF302821FF302821FF302821FF302821FF302821FF302821FF302821FF30
310
2821FF302821FF302821FF302821FF302821FF302821FF302821FF302821FF302821FF302821FF302821FF302821FF302821FF302821FF302821FF302821FF302821FF302821FF302821FF302821FF302821FF302821FF302821FF302821FF302821FF302821FF302821FF302821FF302821FF302821FF302821FF302821FF
310
302821FF302821FF302821FF302821FF302821FF302821FF302821FF302821FF302821FF302821FF302821FF302821FF302821FF302821FF302821FF302821FF302821FF302821FF
102
{BLKREFS
331
86BC1
102
}
1001
ACAD
1000
DesignCenter Data
1002
{
1070
     1
1070
     4
1002
}
  0
BLOCK_RECORD
  5
53F57
330
1
100
AcDbSymbolTableRecord
100
AcDbBlockTableRecord
  2
GENAXEH
340
0
  0
BLOCK_RECORD
  5
53F5B
330
1
100
AcDbSymbolTableRecord
100
AcDbBlockTableRecord
  2
_ACMFILLED30
340
0
310
28000000200000002000000001002000000000000010000001000000010000000000000000000000302821FF302821FF302821FF302821FF302821FF302821FF302821FF302821FF302821FF302821FF302821FF302821FF302821FF302821FF302821FF302821FF302821FF302821FF302821FF302821FF302821FF302821
310
FF302821FF302821FF302821FF302821FF302821FF302821FF302821FF302821FF302821FF302821FF302821FF302821FF302821FF302821FF302821FF302821FF302821FF302821FF302821FF302821FF302821FF302821FF302821FF302821FF302821FF302821FF302821FF302821FF302821FF302821FF302821FF3028
310
21FF302821FF302821FF302821FF302821FF302821FF302821FF302821FF302821FF302821FF302821FF302821FF302821FF302821FF302821FF302821FF302821FF302821FF302821FF302821FF302821FF302821FF302821FF302821FF302821FF302821FF302821FF302821FF302821FF302821FF302821FF302821FF30
310
2821FF302821FF302821FF302821FF302821FF302821FF302821FF302821FF302821FF302821FF302821FF302821FF302821FF302821FF302821FF302821FF302821FF302821FF302821FF302821FF302821FF302821FF302821FF302821FF302821FF302821FF302821FF302821FF302821FF302821FF302821FF302821FF
310
302821FF302821FF302821FF302821FF302821FF302821FF302821FF302821FF302821FF302821FF302821FF302821FF302821FF302821FF302821FF302821FF302821FF302821FF302821FF302821FF302821FF302821FF302821FF302821FF302821FF302821FF302821FF302821FF302821FF302821FF302821FF302821
310
FF302821FF302821FF302821FF302821FF302821FF302821FF302821FF302821FF302821FF302821FF302821FF302821FF302821FF302821FF302821FF302821FF302821FF302821FF302821FF302821FF302821FF302821FF302821FF302821FF302821FF302821FF302821FF302821FF302821FF302821FF302821FF3028
310
21FF302821FF302821FF302821FF302821FF302821FF302821FF302821FF302821FF302821FF302821FF302821FF302821FF302821FF302821FF302821FF302821FF302821FF302821FF302821FF302821FF302821FF302821FF302821FF302821FF302821FF302821FF302821FF302821FF302821FF302821FF302821FF30
310
2821FF302821FF302821FF302821FF302821FF302821FF302821FF302821FF302821FF302821FF302821FF302821FF302821FF302821FF302821FF302821FF302821FF302821FF302821FF302821FF302821FF302821FF302821FF302821FF302821FF302821FF302821FF302821FF302821FF302821FF302821FF302821FF
310
302821FF302821FF302821FF302821FF302821FF302821FF302821FF302821FF302821FF302821FF302821FF302821FF302821FFFFFFFFFFFFFFFFFFFFFFFFFF302821FF302821FF302821FF302821FF302821FF302821FF302821FF302821FF302821FF302821FF302821FF302821FF302821FF302821FF302821FF302821
310
FF302821FF302821FF302821FF302821FF302821FF302821FF302821FF302821FF302821FF302821FF302821FF302821FF302821FFFFFFFFFFFFFFFFFFFFFFFFFFFFFFFFFFFFFFFFFFFFFFFFFFFFFFFFFF302821FF302821FF302821FF302821FF302821FF302821FF302821FF302821FF302821FF302821FF302821FF3028
310
21FF302821FF302821FF302821FF302821FF302821FF302821FF302821FF302821FF302821FF302821FF302821FF302821FF302821FFFFFFFFFFFFFFFFFFFFFFFFFFFFFFFFFFFFFFFFFFFFFFFFFFFFFFFFFFFFFFFFFFFFFFFFFFFFFFFFFFFFFFFFFF302821FF302821FF302821FF302821FF302821FF302821FF302821FF30
310
2821FF302821FF302821FF302821FF302821FF302821FF302821FF302821FF302821FF302821FF302821FF302821FF302821FF302821FFFFFFFFFFFFFFFFFFFFFFFFFFFFFFFFFFFFFFFFFFFFFFFFFFFFFFFFFFFFFFFFFFFFFFFFFFFFFFFFFFFFFFFFFFFFFFFFFFFFFFFFFFFFFFFFFFFFFFFFFF302821FF302821FF302821FF
310
302821FF302821FF302821FF302821FF302821FF302821FF302821FF302821FF302821FF302821FF302821FF302821FF302821FF302821FFFFFFFFFFFFFFFFFFFFFFFFFFFFFFFFFFFFFFFFFFFFFFFFFFFFFFFFFFFFFFFFFFFFFFFFFFFFFFFFFFFFFFFFFFFFFFFFFFFFFFFFFFFFFFFFFFFFFFFFFFFFFFFFFFFFFFFFFFFFFFFF
310
FFFFFFFFFF302821FF302821FF302821FF302821FF302821FF302821FF302821FF302821FF302821FF302821FF302821FF302821FF302821FFFFFFFFFFFFFFFFFFFFFFFFFFFFFFFFFFFFFFFFFFFFFFFFFFFFFFFFFFFFFFFFFFFFFFFFFFFFFFFFFFFFFFFFFFFFFFFFFFFFFFFFFFFFFFFFFFFFFFFFFFFFFFFFFFFFFFFFFFFFFF
310
FFFFFFFFFFFFFFFFFFFFFFFFFFFFFFFFFFFFFFFFFFFF302821FF302821FF302821FF302821FF302821FF302821FF302821FF302821FF302821FFFFFFFFFFFFFFFFFFFFFFFFFFFFFFFFFFFFFFFFFFFFFFFFFFFFFFFFFFFFFFFFFFFFFFFFFFFFFFFFFFFFFFFFFFFFFFFFFFFFFFFFFFFFFFFFFFFFFFFFFFFFFFFFFFFFFFFFFFFF
310
FFFFFFFFFFFFFFFFFFFFFFFFFFFFFFFFFFFFFFFFFFFFFFFFFFFFFFFFFFFFFFFFFFFFFFFFFFFFFF302821FF302821FF302821FF302821FF302821FFFFFFFFFFFFFFFFFFFFFFFFFFFFFFFFFFFFFFFFFFFFFFFFFFFFFFFFFFFFFFFFFFFFFFFFFFFFFFFFFFFFFFFFFFFFFFFFFFFFFFFFFFFFFFFFFFFFFFFFFFFFFFFFFFFFFFFFFF
310
FFFFFFFFFFFFFFFFFFFFFFFFFFFFFFFFFFFFFFFFFFFFFFFFFFFFFFFFFFFFFFFFFFFFFFFFFFFFFFFFFFFFFFFFFFFFFFFFFFFFFFFF302821FF302821FFFFFFFFFFFFFFFFFFFFFFFFFFFFFFFFFFFFFFFFFFFFFFFFFFFFFFFFFFFFFFFFFFFFFFFFFFFFFFFFFFFFFFFFFFFFFFFFFFFFFFFFFFFFFFFFFFFFFFFFFFFFFFFFFFFFFFFF
310
FFFFFFFFFFFFFFFFFFFFFFFFFFFFFFFFFFFFFFFFFFFFFFFFFFFFFFFFFFFFFFFFFFFFFFFFFFFFFFFFFFFFFFFFFF302821FF302821FF302821FF302821FFFFFFFFFFFFFFFFFFFFFFFFFFFFFFFFFFFFFFFFFFFFFFFFFFFFFFFFFFFFFFFFFFFFFFFFFFFFFFFFFFFFFFFFFFFFFFFFFFFFFFFFFFFFFFFFFFFFFFFFFFFFFFFFFFFFFF
310
FFFFFFFFFFFFFFFFFFFFFFFFFFFFFFFFFFFFFFFFFFFFFFFFFFFFFFFFFFFF302821FF302821FF302821FF302821FF302821FF302821FF302821FF302821FFFFFFFFFFFFFFFFFFFFFFFFFFFFFFFFFFFFFFFFFFFFFFFFFFFFFFFFFFFFFFFFFFFFFFFFFFFFFFFFFFFFFFFFFFFFFFFFFFFFFFFFFFFFFFFFFFFFFFFFFFFFFFFFFFFF
310
FFFFFFFFFFFFFFFFFFFFFFFFFFFFFF302821FF302821FF302821FF302821FF302821FF302821FF302821FF302821FF302821FF302821FF302821FF302821FFFFFFFFFFFFFFFFFFFFFFFFFFFFFFFFFFFFFFFFFFFFFFFFFFFFFFFFFFFFFFFFFFFFFFFFFFFFFFFFFFFFFFFFFFFFFFFFFFFFFFFFFFFFFFFFFFFFFFFFFFFFFFFFFF
310
FFFFFFFF302821FF302821FF302821FF302821FF302821FF302821FF302821FF302821FF302821FF302821FF302821FF302821FF302821FF302821FF302821FFFFFFFFFFFFFFFFFFFFFFFFFFFFFFFFFFFFFFFFFFFFFFFFFFFFFFFFFFFFFFFFFFFFFFFFFFFFFFFFFFFFFFFFFFFFFFFFFFFFFFFFFF302821FF302821FF302821
310
FF302821FF302821FF302821FF302821FF302821FF302821FF302821FF302821FF302821FF302821FF302821FF302821FF302821FF302821FF302821FF302821FFFFFFFFFFFFFFFFFFFFFFFFFFFFFFFFFFFFFFFFFFFFFFFFFFFFFFFFFFFFFFFFFFFFFFFFFFFFFFFFFF302821FF302821FF302821FF302821FF302821FF3028
310
21FF302821FF302821FF302821FF302821FF302821FF302821FF302821FF302821FF302821FF302821FF302821FF302821FF302821FF302821FF302821FF302821FFFFFFFFFFFFFFFFFFFFFFFFFFFFFFFFFFFFFFFFFFFFFFFFFF302821FF302821FF302821FF302821FF302821FF302821FF302821FF302821FF302821FF30
310
2821FF302821FF302821FF302821FF302821FF302821FF302821FF302821FF302821FF302821FF302821FF302821FF302821FF302821FF302821FF302821FF302821FFFFFFFFFFFFFFFFFF302821FF302821FF302821FF302821FF302821FF302821FF302821FF302821FF302821FF302821FF302821FF302821FF302821FF
310
302821FF302821FF302821FF302821FF302821FF302821FF302821FF302821FF302821FF302821FF302821FF302821FF302821FF302821FF302821FF302821FF302821FF302821FF302821FF302821FF302821FF302821FF302821FF302821FF302821FF302821FF302821FF302821FF302821FF302821FF302821FF302821
310
FF302821FF302821FF302821FF302821FF302821FF302821FF302821FF302821FF302821FF302821FF302821FF302821FF302821FF302821FF302821FF302821FF302821FF302821FF302821FF302821FF302821FF302821FF302821FF302821FF302821FF302821FF302821FF302821FF302821FF302821FF302821FF3028
310
21FF302821FF302821FF302821FF302821FF302821FF302821FF302821FF302821FF302821FF302821FF302821FF302821FF302821FF302821FF302821FF302821FF302821FF302821FF302821FF302821FF302821FF302821FF302821FF302821FF302821FF302821FF302821FF302821FF302821FF302821FF302821FF30
310
2821FF302821FF302821FF302821FF302821FF302821FF302821FF302821FF302821FF302821FF302821FF302821FF302821FF302821FF302821FF302821FF302821FF302821FF302821FF302821FF302821FF302821FF302821FF302821FF302821FF302821FF302821FF302821FF302821FF302821FF302821FF302821FF
310
302821FF302821FF302821FF302821FF302821FF302821FF302821FF302821FF302821FF302821FF302821FF302821FF302821FF302821FF302821FF302821FF302821FF302821FF302821FF302821FF302821FF302821FF302821FF302821FF302821FF302821FF302821FF302821FF302821FF302821FF302821FF302821
310
FF302821FF302821FF302821FF302821FF302821FF302821FF302821FF302821FF302821FF302821FF302821FF302821FF302821FF302821FF302821FF302821FF302821FF302821FF302821FF302821FF302821FF302821FF302821FF302821FF302821FF302821FF302821FF302821FF302821FF302821FF302821FF3028
310
21FF302821FF302821FF302821FF302821FF302821FF302821FF302821FF302821FF302821FF302821FF302821FF302821FF302821FF302821FF302821FF302821FF302821FF302821FF302821FF302821FF302821FF302821FF302821FF302821FF302821FF302821FF302821FF302821FF302821FF302821FF302821FF30
310
2821FF302821FF302821FF302821FF302821FF302821FF302821FF302821FF302821FF302821FF302821FF302821FF302821FF302821FF302821FF302821FF302821FF302821FF302821FF302821FF302821FF302821FF302821FF302821FF302821FF302821FF302821FF302821FF302821FF302821FF302821FF302821FF
310
302821FF302821FF302821FF302821FF302821FF302821FF302821FF302821FF302821FF302821FF302821FF302821FF302821FF302821FF302821FF302821FF302821FF302821FF
  0
BLOCK_RECORD
  5
86969
102
{ACAD_XDICTIONARY
360
86E0B
102
}
330
1
100
AcDbSymbolTableRecord
100
AcDbBlockTableRecord
  2
20-1221 Stifterbank
340
0
310
28000000200000002000000001002000000000000010000001000000010000000000000000000000302821FF302821FF302821FF302821FF302821FF302821FF302821FF302821FF302821FF302821FF302821FF302821FF302821FF302821FF302821FF302821FF302821FF302821FF302821FF302821FF302821FF302821
310
FF302821FF302821FF302821FF302821FF302821FF302821FF302821FF302821FF302821FF302821FF302821FF302821FF302821FF302821FF302821FF302821FF302821FF302821FF302821FF302821FF302821FF302821FF302821FF302821FF302821FF302821FF302821FF302821FF302821FF302821FF302821FF3028
310
21FF302821FF302821FF302821FF302821FF302821FF302821FF302821FF302821FF302821FF302821FF302821FF302821FF302821FF302821FF302821FF302821FF302821FF302821FF302821FF302821FF302821FF302821FF302821FF302821FF302821FF302821FF302821FF302821FF302821FF302821FF302821FF30
310
2821FF302821FF302821FF302821FF302821FF302821FF302821FF302821FF302821FF302821FF302821FF302821FF302821FF302821FF302821FF302821FF302821FF302821FF302821FF302821FF302821FF302821FF302821FF302821FF302821FF302821FF302821FF302821FF302821FF302821FF302821FF302821FF
310
302821FF302821FF302821FF302821FF302821FF302821FF302821FF302821FF302821FF302821FF302821FF302821FF302821FF302821FF302821FF302821FF302821FF302821FF302821FF7FBFFFFF7FBFFFFF7FBFFFFF7FBFFFFF7FBFFFFF7FBFFFFF7FBFFFFF7FBFFFFF7FBFFFFF7FBFFFFF7FBFFFFF7FBFFFFF7FBFFF
310
FF7FBFFFFF7FBFFFFF7FBFFFFF302821FF302821FF302821FF302821FF302821FF302821FF302821FF302821FF302821FF302821FF302821FF302821FF302821FF302821FF302821FF7FBFFFFF302821FF302821FF302821FF302821FF302821FF302821FF302821FF302821FF302821FF302821FF302821FF302821FF3028
310
21FF302821FF302821FF302821FF7FBFFFFF302821FF302821FF302821FF302821FF302821FF302821FF302821FF302821FF302821FF302821FF302821FF302821FF7FBFFFFF7FBFFFFF302821FF302821FF302821FF302821FF302821FF302821FF302821FF302821FF302821FF302821FF302821FF302821FF302821FF30
310
2821FF302821FF302821FF302821FF302821FF7FBFFFFF7FBFFFFF302821FF302821FF302821FF302821FF302821FF302821FF302821FF302821FF302821FF7FBFFFFF302821FF302821FF302821FF302821FF302821FF302821FF302821FF302821FF302821FF302821FF302821FF302821FF302821FF302821FF302821FF
310
302821FF302821FF302821FF302821FF302821FF302821FF302821FF7FBFFFFF302821FF302821FF302821FF302821FF302821FF302821FF302821FF7FBFFFFF302821FF302821FF302821FF302821FF302821FF302821FF302821FF302821FF302821FF302821FF302821FF302821FF302821FF302821FF302821FF302821
310
FF302821FF302821FF302821FF302821FF302821FF302821FF302821FF302821FF7FBFFFFF302821FF302821FF302821FF302821FF302821FF7FBFFFFF302821FF302821FF302821FF302821FF302821FF302821FF302821FF302821FF302821FF302821FF302821FF302821FF302821FF302821FF302821FF302821FF3028
310
21FF302821FF302821FF302821FF302821FF302821FF302821FF302821FF302821FF302821FF7FBFFFFF302821FF302821FF302821FF302821FF7FBFFFFF302821FF302821FF302821FF302821FF302821FF302821FF302821FF302821FF302821FF302821FF302821FF302821FF302821FF302821FF302821FF302821FF30
310
2821FF302821FF302821FF302821FF302821FF302821FF302821FF302821FF302821FF302821FF7FBFFFFF302821FF302821FF302821FF302821FF7FBFFFFF302821FF302821FF302821FF302821FF302821FF302821FF302821FF302821FF302821FF302821FF302821FF302821FF302821FF302821FF302821FF302821FF
310
302821FF302821FF302821FF302821FF302821FF302821FF302821FF302821FF302821FF302821FF7FBFFFFF302821FF302821FF302821FF302821FF7FBFFFFF302821FF302821FF302821FF302821FF302821FF302821FF302821FF302821FF302821FF302821FF302821FF302821FF302821FF302821FF302821FF302821
310
FF302821FF302821FF302821FF302821FF302821FF302821FF302821FF302821FF302821FF302821FF302821FF7FBFFFFF302821FF302821FF7FBFFFFF302821FF302821FF302821FF302821FF302821FF302821FF302821FF302821FF00FFFFFF302821FF302821FF302821FF302821FF302821FF302821FF302821FF3028
310
21FF302821FF302821FFFF0000FF302821FF302821FF302821FF302821FF302821FF302821FF302821FF302821FF7FBFFFFF302821FF302821FF7FBFFFFF302821FF302821FF302821FF302821FF302821FF302821FF302821FF302821FF00FFFFFFFF0000FFFF0000FFFF0000FFFF0000FFFF0000FFFF0000FFFF0000FFFF
310
0000FFFF0000FFFF0000FF0000FFFF302821FF302821FF302821FF302821FF302821FF302821FF302821FF302821FF7FBFFFFF302821FF302821FF7FBFFFFF302821FF302821FF302821FF302821FF302821FF302821FF302821FF302821FFA59152FFFF0000FFFF0000FFFF0000FFFF0000FFFF0000FFFF0000FFFF0000FF
310
FF0000FFFF0000FFFF0000FF0000FFFF302821FF302821FF302821FF302821FF302821FF302821FF302821FF7FBFFFFF302821FF302821FF302821FF7FBFFFFF302821FF302821FF302821FF302821FF302821FF302821FF302821FF302821FF0000FFFFFF0000FFFF0000FFFF0000FFFF0000FFFF0000FFFF0000FFFF0000
310
FFFF0000FFFF0000FFFF0000FF0000FFFF302821FF302821FF302821FF302821FF302821FF302821FF302821FF7FBFFFFF302821FF302821FF302821FF302821FF7FBFFFFF302821FF302821FF302821FF302821FF302821FF302821FF302821FF0000FFFFFF0000FFFF0000FFFF0000FFFF0000FFFF0000FFFF0000FFFF00
310
00FFFF0000FFFF0000FFFF0000FF0000FFFF302821FF302821FF302821FF302821FF302821FF302821FF302821FF7FBFFFFF302821FF302821FF302821FF302821FF7FBFFFFF302821FF302821FF302821FF302821FF302821FF302821FF302821FF302821FF0000FFFF0000FFFF0000FFFF0000FFFF0000FFFF0000FFFF00
310
00FFFF0000FFFF0000FFFF0000FFFF302821FF302821FF302821FF302821FF302821FF302821FF302821FF302821FF7FBFFFFF302821FF302821FF302821FF302821FF7FBFFFFF302821FF302821FF302821FF302821FF302821FF302821FF302821FF302821FF302821FF302821FF302821FF302821FF302821FF302821FF
310
302821FF302821FF302821FF302821FF302821FF302821FF302821FF302821FF302821FF302821FF302821FF302821FF7FBFFFFF302821FF302821FF302821FF302821FF7FBFFFFF302821FF302821FF302821FF302821FF302821FF302821FF302821FF302821FF302821FF302821FF302821FF302821FF302821FF302821
310
FF302821FF302821FF302821FF302821FF302821FF302821FF302821FF302821FF302821FF302821FF302821FF302821FF7FBFFFFF302821FF302821FF302821FF302821FF7FBFFFFF302821FF302821FF302821FF302821FF302821FF302821FF302821FF302821FF302821FF302821FF302821FF302821FF302821FF3028
310
21FF302821FF302821FF302821FF302821FF302821FF302821FF302821FF302821FF302821FF302821FF302821FF7FBFFFFF7FBFFFFF302821FF302821FF302821FF302821FF302821FF7FBFFFFF302821FF302821FF302821FF302821FF302821FF302821FF302821FF302821FF302821FF302821FF302821FF302821FF30
310
2821FF302821FF302821FF302821FF302821FF302821FF302821FF302821FF302821FF302821FF302821FF302821FF7FBFFFFF302821FF302821FF302821FF302821FF302821FF302821FF302821FF7FBFFFFF302821FF302821FF302821FF302821FF302821FF302821FF302821FF302821FF302821FF302821FF302821FF
310
302821FF302821FF302821FF302821FF302821FF302821FF302821FF302821FF302821FF302821FF302821FF7FBFFFFF7FBFFFFF302821FF302821FF302821FF302821FF302821FF302821FF302821FF302821FF7FBFFFFF302821FF302821FF302821FF302821FF302821FF302821FF302821FF302821FF302821FF302821
310
FF302821FF302821FF302821FF302821FF302821FF302821FF302821FF302821FF302821FF302821FF7FBFFFFF7FBFFFFF302821FF302821FF302821FF302821FF302821FF302821FF302821FF302821FF302821FF7FBFFFFF302821FF302821FF302821FF302821FF302821FF302821FF302821FF302821FF302821FF3028
310
21FF302821FF302821FF302821FF302821FF302821FF302821FF302821FF302821FF7FBFFFFF7FBFFFFF7FBFFFFF302821FF302821FF302821FF302821FF302821FF302821FF302821FF302821FF302821FF302821FF302821FF7FBFFFFF7FBFFFFF7FBFFFFF302821FF302821FF302821FF302821FF302821FF302821FF30
310
2821FF302821FF302821FF302821FF302821FF302821FF302821FF302821FF7FBFFFFF7FBFFFFF7FBFFFFF302821FF302821FF302821FF302821FF302821FF302821FF302821FF302821FF302821FF302821FF302821FF302821FF302821FF302821FF302821FF7FBFFFFF7FBFFFFF7FBFFFFF7FBFFFFF7FBFFFFF7FBFFFFF
310
7FBFFFFF7FBFFFFF7FBFFFFF7FBFFFFF7FBFFFFF7FBFFFFF7FBFFFFF7FBFFFFF302821FF302821FF302821FF302821FF302821FF302821FF302821FF302821FF302821FF302821FF302821FF302821FF302821FF302821FF302821FF302821FF302821FF302821FF302821FF302821FF302821FF302821FF302821FF302821
310
FF302821FF302821FF302821FF302821FF302821FF302821FF302821FF302821FF302821FF302821FF302821FF302821FF302821FF302821FF302821FF302821FF302821FF302821FF302821FF302821FF302821FF302821FF302821FF302821FF302821FF302821FF302821FF302821FF302821FF302821FF302821FF3028
310
21FF302821FF302821FF302821FF302821FF302821FF302821FF302821FF302821FF302821FF302821FF302821FF302821FF302821FF302821FF302821FF302821FF302821FF302821FF302821FF302821FF302821FF302821FF302821FF302821FF302821FF302821FF302821FF302821FF302821FF302821FF302821FF30
310
2821FF302821FF302821FF302821FF302821FF302821FF302821FF302821FF302821FF302821FF302821FF302821FF302821FF302821FF302821FF302821FF302821FF302821FF302821FF302821FF302821FF302821FF302821FF302821FF302821FF302821FF302821FF302821FF302821FF302821FF302821FF302821FF
310
302821FF302821FF302821FF302821FF302821FF302821FF302821FF302821FF302821FF302821FF302821FF302821FF302821FF302821FF302821FF302821FF302821FF302821FF
102
{BLKREFS
331
86BC2
102
}
1001
AcDbDynamicBlockGUID
1000
{1851C9EF-385F-42FE-BA7D-6D4B7CF45974}
1001
ACAD
1000
DesignCenter Data
1002
{
1070
     1
1070
     4
1002
}
  0
ENDTAB
  0
ENDSEC
  0
SECTION
  2
BLOCKS
  0
BLOCK
  5
24
330
23
100
AcDbEntity
  8
0
100
AcDbBlockBegin
  2
*Model_Space
 70
     0
 10
0.0
 20
0.0
 30
0.0
  3
*Model_Space
  1

  0
ENDBLK
  5
25
330
23
100
AcDbEntity
  8
0
100
AcDbBlockEnd
  0
BLOCK
  5
31D06
330
31D04
100
AcDbEntity
 67
     1
  8
0
100
AcDbBlockBegin
  2
*Paper_Space
 70
     0
 10
0.0
 20
0.0
 30
0.0
  3
*Paper_Space
  1

  0
ENDBLK
  5
31D07
330
31D04
100
AcDbEntity
 67
     1
  8
0
100
AcDbBlockEnd
  0
BLOCK
  5
51993
330
5198F
100
AcDbEntity
  8
0
100
AcDbBlockBegin
  2
Eigentum
 70
     0
 10
0.0
 20
0.0
 30
0.0
  3
Eigentum
  1

  0
MTEXT
  5
51990
102
{ACAD_XDICTIONARY
360
86ECB
102
}
330
5198F
100
AcDbEntity
  8
Text
100
AcDbMText
 10
0.1881376586563874
 20
0.0
 30
0.0
 40
1.9
 41
62.72914090897023
 71
     4
 72
     5
  3
{\fTahoma|b0|i0|c0|p34;\LDiese Zeichnung ist Eigentum der Firma:\P\lESF Emsland Spiel- und Freizeitger\U+00E4te GmbH & Co. KG\PThyssenstra\U+00DFe 7, 49744 Geeste\PTel: 05937/ 97189-0 ; Fax: 05937/ 97189-90\PAlle Rechte sind bei den Autoren.\PDiese U
  1
nterlage darf nicht ohne Zustimmung der o. g. Firma in den Ausschreibungen verwendet werden.\PDer nicht autorisierte Nachbau ist kostenpflichtig.}
  7
2.5
 73
     1
 44
1.0
1001
ACAD
1000
MTEXTBEGIN
1070
    73
1070
     1
1070
    44
1040
1.0
1070
    74
1070
     0
1000
MTEXTEND
  0
ENDBLK
  5
51994
330
5198F
100
AcDbEntity
  8
0
100
AcDbBlockEnd
  0
BLOCK
  5
53F58
330
53F57
100
AcDbEntity
  8
0
100
AcDbBlockBegin
  2
GENAXEH
 70
     0
 10
0.0
 20
0.0
 30
0.0
  3
GENAXEH
  1

  0
LINE
  5
53F59
330
53F57
100
AcDbEntity
  8
0
100
AcDbLine
 10
-1.0
 20
0.0
 30
0.0
 11
1.0
 21
0.0
 31
0.0
  0
ENDBLK
  5
53F5A
330
53F57
100
AcDbEntity
  8
0
100
AcDbBlockEnd
  0
BLOCK
  5
53F5C
330
53F5B
100
AcDbEntity
  8
0
100
AcDbBlockBegin
  2
_ACMFILLED30
 70
     0
 10
0.0
 20
0.0
 30
0.0
  3
_ACMFILLED30
  1

  0
TRACE
  5
53F5D
330
53F5B
100
AcDbEntity
  8
Kontur 18
 62
     0
100
AcDbTrace
 10
-1.0
 20
-0.26794919
 30
0.0
 11
-1.0
 21
0.26794919
 31
0.0
 12
0.0
 22
0.0
 32
0.0
 13
0.0
 23
0.0
 33
0.0
  0
ENDBLK
  5
53F5E
330
53F5B
100
AcDbEntity
  8
0
100
AcDbBlockEnd
  0
BLOCK
  5
8696A
330
86969
100
AcDbEntity
  8
0
100
AcDbBlockBegin
  2
20-1221 Stifterbank
 70
     0
 10
0.0
 20
0.0
 30
0.0
  3
20-1221 Stifterbank
  1

  0
LINE
  5
86BC6
330
86969
100
AcDbEntity
  8
ESF_Spielgeraet
100
AcDbLine
 10
11819.66351311918
 20
-1277.4786467487
 30
0.0
 11
11819.18001438521
 21
-1277.4786467487
 31
0.0
  0
LINE
  5
86BC7
330
86969
100
AcDbEntity
  8
ESF_Spielgeraet
100
AcDbLine
 10
11819.13201438521
 20
-1277.4786467487
 30
0.0
 11
11818.05351311918
 21
-1277.4786467487
 31
0.0
  0
ARC
  5
86BC8
330
86969
100
AcDbEntity
  8
ESF_Spielgeraet
100
AcDbCircle
 10
11819.65351311919
 20
-1277.4886467487
 30
0.0
 40
0.01
100
AcDbArc
 50
0.0
 51
90.0
  0
LINE
  5
86BC9
330
86969
100
AcDbEntity
  8
ESF_Spielgeraet
100
AcDbLine
 10
11819.66351311918
 20
-1277.4886467487
 30
0.0
 11
11819.66351311918
 21
-1277.528594688064
 31
0.0
  0
ARC
  5
86BCA
330
86969
100
AcDbEntity
  8
ESF_Spielgeraet
100
AcDbCircle
 10
11819.65351311919
 20
-1277.528594688064
 30
0.0
 40
0.01
100
AcDbArc
 50
270.0
 51
0.0
  0
LINE
  5
86BCB
330
86969
100
AcDbEntity
  8
ESF_Spielgeraet
100
AcDbLine
 10
11819.65351311919
 20
-1277.538594688064
 30
0.0
 11
11818.06351311919
 21
-1277.538594688064
 31
0.0
  0
LINE
  5
86BCC
330
86969
100
AcDbEntity
  8
ESF_Spielgeraet
100
AcDbLine
 10
11818.05351311918
 20
-1277.528594688064
 30
0.0
 11
11818.05351311918
 21
-1277.488537194776
 31
0.0
  0
ARC
  5
86BCD
330
86969
100
AcDbEntity
  8
ESF_Spielgeraet
100
AcDbCircle
 10
11818.06351311919
 20
-1277.528594688064
 30
0.0
 40
0.01
100
AcDbArc
 50
180.0
 51
270.0
  0
LINE
  5
86BCE
330
86969
100
AcDbEntity
  8
ESF_Spielgeraet
100
AcDbLine
 10
11819.66351311918
 20
-1277.4786467487
 30
0.0
 11
11819.66351311918
 21
-1277.1508467487
 31
0.0
  0
ARC
  5
86BCF
330
86969
100
AcDbEntity
  8
ESF_Spielgeraet
100
AcDbCircle
 10
11819.65351311919
 20
-1277.1508467487
 30
0.0
 40
0.01
100
AcDbArc
 50
0.0
 51
90.0
  0
LINE
  5
86BD0
330
86969
100
AcDbEntity
  8
ESF_Spielgeraet
100
AcDbLine
 10
11819.65351311919
 20
-1277.1408467487
 30
0.0
 11
11819.59351438521
 21
-1277.1408467487
 31
0.0
  0
LINE
  5
86BD1
330
86969
100
AcDbEntity
  8
ESF_Spielgeraet
100
AcDbLine
 10
11819.56851438521
 20
-1277.1408467487
 30
0.0
 11
11819.50851438521
 21
-1277.1408467487
 31
0.0
  0
LINE
  5
86BD2
330
86969
100
AcDbEntity
  8
ESF_Spielgeraet
100
AcDbLine
 10
11819.48351438521
 20
-1277.1408467487
 30
0.0
 11
11819.42351438521
 21
-1277.1408467487
 31
0.0
  0
LINE
  5
86BD3
330
86969
100
AcDbEntity
  8
ESF_Spielgeraet
100
AcDbLine
 10
11819.39851438521
 20
-1277.1408467487
 30
0.0
 11
11819.33851438521
 21
-1277.1408467487
 31
0.0
  0
LINE
  5
86BD4
330
86969
100
AcDbEntity
  8
ESF_Spielgeraet
100
AcDbLine
 10
11819.31351438521
 20
-1277.1408467487
 30
0.0
 11
11819.25351438521
 21
-1277.1408467487
 31
0.0
  0
LINE
  5
86BD5
330
86969
100
AcDbEntity
  8
ESF_Spielgeraet
100
AcDbLine
 10
11819.22851438521
 20
-1277.1408467487
 30
0.0
 11
11819.18001438521
 21
-1277.1408467487
 31
0.0
  0
LINE
  5
86BD6
330
86969
100
AcDbEntity
  8
ESF_Spielgeraet
100
AcDbLine
 10
11819.13201438521
 20
-1277.1408467487
 30
0.0
 11
11819.08351438521
 21
-1277.1408467487
 31
0.0
  0
LINE
  5
86BD7
330
86969
100
AcDbEntity
  8
ESF_Spielgeraet
100
AcDbLine
 10
11819.05851438521
 20
-1277.1408467487
 30
0.0
 11
11818.99851438521
 21
-1277.1408467487
 31
0.0
  0
LINE
  5
86BD8
330
86969
100
AcDbEntity
  8
ESF_Spielgeraet
100
AcDbLine
 10
11818.97351438521
 20
-1277.1408467487
 30
0.0
 11
11818.91351438521
 21
-1277.1408467487
 31
0.0
  0
LINE
  5
86BD9
330
86969
100
AcDbEntity
  8
ESF_Spielgeraet
100
AcDbLine
 10
11818.88851438521
 20
-1277.1408467487
 30
0.0
 11
11818.82851438521
 21
-1277.1408467487
 31
0.0
  0
LINE
  5
86BDA
330
86969
100
AcDbEntity
  8
ESF_Spielgeraet
100
AcDbLine
 10
11818.80351438521
 20
-1277.1408467487
 30
0.0
 11
11818.74351438521
 21
-1277.1408467487
 31
0.0
  0
LINE
  5
86BDB
330
86969
100
AcDbEntity
  8
ESF_Spielgeraet
100
AcDbLine
 10
11818.71851438521
 20
-1277.1408467487
 30
0.0
 11
11818.65851438521
 21
-1277.1408467487
 31
0.0
  0
LINE
  5
86BDC
330
86969
100
AcDbEntity
  8
ESF_Spielgeraet
100
AcDbLine
 10
11818.63351438521
 20
-1277.1408467487
 30
0.0
 11
11818.57351438521
 21
-1277.1408467487
 31
0.0
  0
LINE
  5
86BDD
330
86969
100
AcDbEntity
  8
ESF_Spielgeraet
100
AcDbLine
 10
11818.54851438521
 20
-1277.1408467487
 30
0.0
 11
11818.48851438521
 21
-1277.1408467487
 31
0.0
  0
LINE
  5
86BDE
330
86969
100
AcDbEntity
  8
ESF_Spielgeraet
100
AcDbLine
 10
11818.46351438521
 20
-1277.1408467487
 30
0.0
 11
11818.40351438521
 21
-1277.1408467487
 31
0.0
  0
LINE
  5
86BDF
330
86969
100
AcDbEntity
  8
ESF_Spielgeraet
100
AcDbLine
 10
11818.37851438521
 20
-1277.1408467487
 30
0.0
 11
11818.31851438521
 21
-1277.1408467487
 31
0.0
  0
LINE
  5
86BE0
330
86969
100
AcDbEntity
  8
ESF_Spielgeraet
100
AcDbLine
 10
11818.29351438521
 20
-1277.1408467487
 30
0.0
 11
11818.23351438521
 21
-1277.1408467487
 31
0.0
  0
LINE
  5
86BE1
330
86969
100
AcDbEntity
  8
ESF_Spielgeraet
100
AcDbLine
 10
11818.20851438521
 20
-1277.1408467487
 30
0.0
 11
11818.14851438521
 21
-1277.1408467487
 31
0.0
  0
LINE
  5
86BE2
330
86969
100
AcDbEntity
  8
ESF_Spielgeraet
100
AcDbLine
 10
11818.13851438521
 20
-1277.1508467487
 30
0.0
 11
11818.13851438521
 21
-1277.4786467487
 31
0.0
  0
ARC
  5
86BE3
330
86969
100
AcDbEntity
  8
ESF_Spielgeraet
100
AcDbCircle
 10
11818.14851438521
 20
-1277.1508467487
 30
0.0
 40
0.01
100
AcDbArc
 50
90.0
 51
180.0
  0
LINE
  5
86BE4
330
86969
100
AcDbEntity
  8
ESF_Spielgeraet
100
AcDbLine
 10
11818.21851438521
 20
-1277.1508467487
 30
0.0
 11
11818.21851438521
 21
-1277.4786467487
 31
0.0
  0
ARC
  5
86BE5
330
86969
100
AcDbEntity
  8
ESF_Spielgeraet
100
AcDbCircle
 10
11818.20851438521
 20
-1277.1508467487
 30
0.0
 40
0.01
100
AcDbArc
 50
0.0
 51
90.0
  0
LINE
  5
86BE6
330
86969
100
AcDbEntity
  8
ESF_Spielgeraet
100
AcDbLine
 10
11818.22351438521
 20
-1277.1508467487
 30
0.0
 11
11818.22351438521
 21
-1277.4786467487
 31
0.0
  0
ARC
  5
86BE7
330
86969
100
AcDbEntity
  8
ESF_Spielgeraet
100
AcDbCircle
 10
11818.23351438521
 20
-1277.1508467487
 30
0.0
 40
0.01
100
AcDbArc
 50
90.0
 51
180.0
  0
LINE
  5
86BE8
330
86969
100
AcDbEntity
  8
ESF_Spielgeraet
100
AcDbLine
 10
11818.30351438521
 20
-1277.1508467487
 30
0.0
 11
11818.30351438521
 21
-1277.4786467487
 31
0.0
  0
ARC
  5
86BE9
330
86969
100
AcDbEntity
  8
ESF_Spielgeraet
100
AcDbCircle
 10
11818.29351438521
 20
-1277.1508467487
 30
0.0
 40
0.01
100
AcDbArc
 50
0.0
 51
90.0
  0
LINE
  5
86BEA
330
86969
100
AcDbEntity
  8
ESF_Spielgeraet
100
AcDbLine
 10
11818.30851438521
 20
-1277.1508467487
 30
0.0
 11
11818.30851438521
 21
-1277.4786467487
 31
0.0
  0
ARC
  5
86BEB
330
86969
100
AcDbEntity
  8
ESF_Spielgeraet
100
AcDbCircle
 10
11818.31851438521
 20
-1277.1508467487
 30
0.0
 40
0.01
100
AcDbArc
 50
90.0
 51
180.0
  0
LINE
  5
86BEC
330
86969
100
AcDbEntity
  8
ESF_Spielgeraet
100
AcDbLine
 10
11818.38851438521
 20
-1277.1508467487
 30
0.0
 11
11818.38851438521
 21
-1277.4786467487
 31
0.0
  0
ARC
  5
86BED
330
86969
100
AcDbEntity
  8
ESF_Spielgeraet
100
AcDbCircle
 10
11818.37851438521
 20
-1277.1508467487
 30
0.0
 40
0.01
100
AcDbArc
 50
0.0
 51
90.0
  0
LINE
  5
86BEE
330
86969
100
AcDbEntity
  8
ESF_Spielgeraet
100
AcDbLine
 10
11818.39351438521
 20
-1277.1508467487
 30
0.0
 11
11818.39351438521
 21
-1277.4786467487
 31
0.0
  0
ARC
  5
86BEF
330
86969
100
AcDbEntity
  8
ESF_Spielgeraet
100
AcDbCircle
 10
11818.40351438521
 20
-1277.1508467487
 30
0.0
 40
0.01
100
AcDbArc
 50
90.0
 51
180.0
  0
LINE
  5
86BF0
330
86969
100
AcDbEntity
  8
ESF_Spielgeraet
100
AcDbLine
 10
11818.47351438521
 20
-1277.1508467487
 30
0.0
 11
11818.47351438521
 21
-1277.4786467487
 31
0.0
  0
ARC
  5
86BF1
330
86969
100
AcDbEntity
  8
ESF_Spielgeraet
100
AcDbCircle
 10
11818.46351438521
 20
-1277.1508467487
 30
0.0
 40
0.01
100
AcDbArc
 50
0.0
 51
90.0
  0
LINE
  5
86BF2
330
86969
100
AcDbEntity
  8
ESF_Spielgeraet
100
AcDbLine
 10
11818.47851438521
 20
-1277.1508467487
 30
0.0
 11
11818.47851438521
 21
-1277.4786467487
 31
0.0
  0
ARC
  5
86BF3
330
86969
100
AcDbEntity
  8
ESF_Spielgeraet
100
AcDbCircle
 10
11818.48851438521
 20
-1277.1508467487
 30
0.0
 40
0.01
100
AcDbArc
 50
90.0
 51
180.0
  0
LINE
  5
86BF4
330
86969
100
AcDbEntity
  8
ESF_Spielgeraet
100
AcDbLine
 10
11818.55851438521
 20
-1277.1508467487
 30
0.0
 11
11818.55851438521
 21
-1277.4786467487
 31
0.0
  0
ARC
  5
86BF5
330
86969
100
AcDbEntity
  8
ESF_Spielgeraet
100
AcDbCircle
 10
11818.54851438521
 20
-1277.1508467487
 30
0.0
 40
0.01
100
AcDbArc
 50
0.0
 51
90.0
  0
LINE
  5
86BF6
330
86969
100
AcDbEntity
  8
ESF_Spielgeraet
100
AcDbLine
 10
11818.56351438521
 20
-1277.1508467487
 30
0.0
 11
11818.56351438521
 21
-1277.4786467487
 31
0.0
  0
ARC
  5
86BF7
330
86969
100
AcDbEntity
  8
ESF_Spielgeraet
100
AcDbCircle
 10
11818.57351438521
 20
-1277.1508467487
 30
0.0
 40
0.01
100
AcDbArc
 50
90.0
 51
180.0
  0
LINE
  5
86BF8
330
86969
100
AcDbEntity
  8
ESF_Spielgeraet
100
AcDbLine
 10
11818.64351438521
 20
-1277.1508467487
 30
0.0
 11
11818.64351438521
 21
-1277.4786467487
 31
0.0
  0
ARC
  5
86BF9
330
86969
100
AcDbEntity
  8
ESF_Spielgeraet
100
AcDbCircle
 10
11818.63351438521
 20
-1277.1508467487
 30
0.0
 40
0.01
100
AcDbArc
 50
0.0
 51
90.0
  0
LINE
  5
86BFA
330
86969
100
AcDbEntity
  8
ESF_Spielgeraet
100
AcDbLine
 10
11818.64851438521
 20
-1277.1508467487
 30
0.0
 11
11818.64851438521
 21
-1277.4786467487
 31
0.0
  0
ARC
  5
86BFB
330
86969
100
AcDbEntity
  8
ESF_Spielgeraet
100
AcDbCircle
 10
11818.65851438521
 20
-1277.1508467487
 30
0.0
 40
0.01
100
AcDbArc
 50
90.0
 51
180.0
  0
LINE
  5
86BFC
330
86969
100
AcDbEntity
  8
ESF_Spielgeraet
100
AcDbLine
 10
11818.72851438521
 20
-1277.1508467487
 30
0.0
 11
11818.72851438521
 21
-1277.4786467487
 31
0.0
  0
ARC
  5
86BFD
330
86969
100
AcDbEntity
  8
ESF_Spielgeraet
100
AcDbCircle
 10
11818.71851438521
 20
-1277.1508467487
 30
0.0
 40
0.01
100
AcDbArc
 50
0.0
 51
90.0
  0
LINE
  5
86BFE
330
86969
100
AcDbEntity
  8
ESF_Spielgeraet
100
AcDbLine
 10
11818.73351438521
 20
-1277.1508467487
 30
0.0
 11
11818.73351438521
 21
-1277.4786467487
 31
0.0
  0
ARC
  5
86BFF
330
86969
100
AcDbEntity
  8
ESF_Spielgeraet
100
AcDbCircle
 10
11818.74351438521
 20
-1277.1508467487
 30
0.0
 40
0.01
100
AcDbArc
 50
90.0
 51
180.0
  0
LINE
  5
86C00
330
86969
100
AcDbEntity
  8
ESF_Spielgeraet
100
AcDbLine
 10
11818.81351438521
 20
-1277.1508467487
 30
0.0
 11
11818.81351438521
 21
-1277.4786467487
 31
0.0
  0
ARC
  5
86C01
330
86969
100
AcDbEntity
  8
ESF_Spielgeraet
100
AcDbCircle
 10
11818.80351438521
 20
-1277.1508467487
 30
0.0
 40
0.01
100
AcDbArc
 50
0.0
 51
90.0
  0
LINE
  5
86C02
330
86969
100
AcDbEntity
  8
ESF_Spielgeraet
100
AcDbLine
 10
11818.81851438521
 20
-1277.1508467487
 30
0.0
 11
11818.81851438521
 21
-1277.4786467487
 31
0.0
  0
ARC
  5
86C03
330
86969
100
AcDbEntity
  8
ESF_Spielgeraet
100
AcDbCircle
 10
11818.82851438521
 20
-1277.1508467487
 30
0.0
 40
0.01
100
AcDbArc
 50
90.0
 51
180.0
  0
LINE
  5
86C04
330
86969
100
AcDbEntity
  8
ESF_Spielgeraet
100
AcDbLine
 10
11818.89851438521
 20
-1277.1508467487
 30
0.0
 11
11818.89851438521
 21
-1277.4786467487
 31
0.0
  0
ARC
  5
86C05
330
86969
100
AcDbEntity
  8
ESF_Spielgeraet
100
AcDbCircle
 10
11818.88851438521
 20
-1277.1508467487
 30
0.0
 40
0.01
100
AcDbArc
 50
0.0
 51
90.0
  0
LINE
  5
86C06
330
86969
100
AcDbEntity
  8
ESF_Spielgeraet
100
AcDbLine
 10
11818.90351438521
 20
-1277.1508467487
 30
0.0
 11
11818.90351438521
 21
-1277.4786467487
 31
0.0
  0
ARC
  5
86C07
330
86969
100
AcDbEntity
  8
ESF_Spielgeraet
100
AcDbCircle
 10
11818.91351438521
 20
-1277.1508467487
 30
0.0
 40
0.01
100
AcDbArc
 50
90.0
 51
180.0
  0
LINE
  5
86C08
330
86969
100
AcDbEntity
  8
ESF_Spielgeraet
100
AcDbLine
 10
11818.98351438521
 20
-1277.1508467487
 30
0.0
 11
11818.98351438521
 21
-1277.4786467487
 31
0.0
  0
ARC
  5
86C09
330
86969
100
AcDbEntity
  8
ESF_Spielgeraet
100
AcDbCircle
 10
11818.97351438521
 20
-1277.1508467487
 30
0.0
 40
0.01
100
AcDbArc
 50
0.0
 51
90.0
  0
LINE
  5
86C0A
330
86969
100
AcDbEntity
  8
ESF_Spielgeraet
100
AcDbLine
 10
11818.98851438521
 20
-1277.1508467487
 30
0.0
 11
11818.98851438521
 21
-1277.4786467487
 31
0.0
  0
ARC
  5
86C0B
330
86969
100
AcDbEntity
  8
ESF_Spielgeraet
100
AcDbCircle
 10
11818.99851438521
 20
-1277.1508467487
 30
0.0
 40
0.01
100
AcDbArc
 50
90.0
 51
180.0
  0
LINE
  5
86C0C
330
86969
100
AcDbEntity
  8
ESF_Spielgeraet
100
AcDbLine
 10
11819.06851438521
 20
-1277.1508467487
 30
0.0
 11
11819.06851438521
 21
-1277.4786467487
 31
0.0
  0
ARC
  5
86C0D
330
86969
100
AcDbEntity
  8
ESF_Spielgeraet
100
AcDbCircle
 10
11819.05851438521
 20
-1277.1508467487
 30
0.0
 40
0.01
100
AcDbArc
 50
0.0
 51
90.0
  0
LINE
  5
86C0E
330
86969
100
AcDbEntity
  8
ESF_Spielgeraet
100
AcDbLine
 10
11819.07351438521
 20
-1277.1508467487
 30
0.0
 11
11819.07351438521
 21
-1277.4786467487
 31
0.0
  0
ARC
  5
86C0F
330
86969
100
AcDbEntity
  8
ESF_Spielgeraet
100
AcDbCircle
 10
11819.08351438521
 20
-1277.1508467487
 30
0.0
 40
0.01
100
AcDbArc
 50
90.0
 51
180.0
  0
LINE
  5
86C10
330
86969
100
AcDbEntity
  8
ESF_Spielgeraet
100
AcDbLine
 10
11819.23851438521
 20
-1277.1508467487
 30
0.0
 11
11819.23851438521
 21
-1277.4786467487
 31
0.0
  0
ARC
  5
86C11
330
86969
100
AcDbEntity
  8
ESF_Spielgeraet
100
AcDbCircle
 10
11819.22851438521
 20
-1277.1508467487
 30
0.0
 40
0.01
100
AcDbArc
 50
0.0
 51
90.0
  0
LINE
  5
86C12
330
86969
100
AcDbEntity
  8
ESF_Spielgeraet
100
AcDbLine
 10
11819.24351438521
 20
-1277.1508467487
 30
0.0
 11
11819.24351438521
 21
-1277.4786467487
 31
0.0
  0
ARC
  5
86C13
330
86969
100
AcDbEntity
  8
ESF_Spielgeraet
100
AcDbCircle
 10
11819.25351438521
 20
-1277.1508467487
 30
0.0
 40
0.01
100
AcDbArc
 50
90.0
 51
180.0
  0
LINE
  5
86C14
330
86969
100
AcDbEntity
  8
ESF_Spielgeraet
100
AcDbLine
 10
11819.32351438521
 20
-1277.1508467487
 30
0.0
 11
11819.32351438521
 21
-1277.4786467487
 31
0.0
  0
ARC
  5
86C15
330
86969
100
AcDbEntity
  8
ESF_Spielgeraet
100
AcDbCircle
 10
11819.31351438521
 20
-1277.1508467487
 30
0.0
 40
0.01
100
AcDbArc
 50
0.0
 51
90.0
  0
LINE
  5
86C16
330
86969
100
AcDbEntity
  8
ESF_Spielgeraet
100
AcDbLine
 10
11819.32851438521
 20
-1277.1508467487
 30
0.0
 11
11819.32851438521
 21
-1277.4786467487
 31
0.0
  0
ARC
  5
86C17
330
86969
100
AcDbEntity
  8
ESF_Spielgeraet
100
AcDbCircle
 10
11819.33851438521
 20
-1277.1508467487
 30
0.0
 40
0.01
100
AcDbArc
 50
90.0
 51
180.0
  0
LINE
  5
86C18
330
86969
100
AcDbEntity
  8
ESF_Spielgeraet
100
AcDbLine
 10
11819.40851438521
 20
-1277.1508467487
 30
0.0
 11
11819.40851438521
 21
-1277.4786467487
 31
0.0
  0
ARC
  5
86C19
330
86969
100
AcDbEntity
  8
ESF_Spielgeraet
100
AcDbCircle
 10
11819.39851438521
 20
-1277.1508467487
 30
0.0
 40
0.01
100
AcDbArc
 50
0.0
 51
90.0
  0
LINE
  5
86C1A
330
86969
100
AcDbEntity
  8
ESF_Spielgeraet
100
AcDbLine
 10
11819.41351438521
 20
-1277.1508467487
 30
0.0
 11
11819.41351438521
 21
-1277.4786467487
 31
0.0
  0
ARC
  5
86C1B
330
86969
100
AcDbEntity
  8
ESF_Spielgeraet
100
AcDbCircle
 10
11819.42351438521
 20
-1277.1508467487
 30
0.0
 40
0.01
100
AcDbArc
 50
90.0
 51
180.0
  0
LINE
  5
86C1C
330
86969
100
AcDbEntity
  8
ESF_Spielgeraet
100
AcDbLine
 10
11819.49351438521
 20
-1277.1508467487
 30
0.0
 11
11819.49351438521
 21
-1277.4786467487
 31
0.0
  0
ARC
  5
86C1D
330
86969
100
AcDbEntity
  8
ESF_Spielgeraet
100
AcDbCircle
 10
11819.48351438521
 20
-1277.1508467487
 30
0.0
 40
0.01
100
AcDbArc
 50
0.0
 51
90.0
  0
LINE
  5
86C1E
330
86969
100
AcDbEntity
  8
ESF_Spielgeraet
100
AcDbLine
 10
11819.49851438521
 20
-1277.1508467487
 30
0.0
 11
11819.49851438521
 21
-1277.4786467487
 31
0.0
  0
ARC
  5
86C1F
330
86969
100
AcDbEntity
  8
ESF_Spielgeraet
100
AcDbCircle
 10
11819.50851438521
 20
-1277.1508467487
 30
0.0
 40
0.01
100
AcDbArc
 50
90.0
 51
180.0
  0
LINE
  5
86C20
330
86969
100
AcDbEntity
  8
ESF_Spielgeraet
100
AcDbLine
 10
11819.57851438521
 20
-1277.1508467487
 30
0.0
 11
11819.57851438521
 21
-1277.4786467487
 31
0.0
  0
ARC
  5
86C21
330
86969
100
AcDbEntity
  8
ESF_Spielgeraet
100
AcDbCircle
 10
11819.56851438521
 20
-1277.1508467487
 30
0.0
 40
0.01
100
AcDbArc
 50
0.0
 51
90.0
  0
LINE
  5
86C22
330
86969
100
AcDbEntity
  8
ESF_Spielgeraet
100
AcDbLine
 10
11819.58351438521
 20
-1277.1508467487
 30
0.0
 11
11819.58351438521
 21
-1277.4786467487
 31
0.0
  0
ARC
  5
86C23
330
86969
100
AcDbEntity
  8
ESF_Spielgeraet
100
AcDbCircle
 10
11819.59351438521
 20
-1277.1508467487
 30
0.0
 40
0.01
100
AcDbArc
 50
90.0
 51
180.0
  0
LINE
  5
86C24
330
86969
100
AcDbEntity
  8
ESF_Spielgeraet
100
AcDbLine
 10
11818.1335137522
 20
-1277.1508467487
 30
0.0
 11
11818.1335137522
 21
-1277.4786467487
 31
0.0
  0
LINE
  5
86C25
330
86969
100
AcDbEntity
  8
ESF_Spielgeraet
100
AcDbLine
 10
11818.0535137522
 20
-1277.4786467487
 30
0.0
 11
11818.0535137522
 21
-1277.1508467487
 31
0.0
  0
ARC
  5
86C26
330
86969
100
AcDbEntity
  8
ESF_Spielgeraet
100
AcDbCircle
 10
11818.0635137522
 20
-1277.1508467487
 30
0.0
 40
0.01
100
AcDbArc
 50
90.0
 51
180.0
  0
LINE
  5
86C27
330
86969
100
AcDbEntity
  8
ESF_Spielgeraet
100
AcDbLine
 10
11818.0635137522
 20
-1277.1408467487
 30
0.0
 11
11818.1235137522
 21
-1277.1408467487
 31
0.0
  0
LINE
  5
86C28
330
86969
100
AcDbEntity
  8
ESF_Spielgeraet
100
AcDbLine
 10
11819.25610801033
 20
-1277.0822667487
 30
0.0
 11
11819.31265443801
 21
-1277.0822667487
 31
0.0
  0
ARC
  5
86C29
330
86969
100
AcDbEntity
  8
ESF_Spielgeraet
100
AcDbCircle
 10
11819.31265443801
 20
-1277.0722667487
 30
0.0
 40
0.01
100
AcDbArc
 50
270.0
 51
0.0
  0
ARC
  5
86C2A
330
86969
100
AcDbEntity
  8
ESF_Spielgeraet
100
AcDbCircle
 10
11819.25610801033
 20
-1277.0722667487
 30
0.0
 40
0.01
100
AcDbArc
 50
180.0
 51
270.0
  0
ARC
  5
86C2B
330
86969
100
AcDbEntity
  8
ESF_Spielgeraet
100
AcDbCircle
 10
11818.1235137522
 20
-1277.1508467487
 30
0.0
 40
0.01
100
AcDbArc
 50
0.0
 51
90.0
  0
LINE
  5
86C2C
330
86969
100
AcDbEntity
  8
ESF_Spielgeraet
100
AcDbLine
 10
11818.1335137522
 20
-1277.478537194776
 30
0.0
 11
11818.06351311919
 21
-1277.478537194776
 31
0.0
  0
ARC
  5
86C2D
330
86969
100
AcDbEntity
  8
ESF_Spielgeraet
100
AcDbCircle
 10
11818.06351311919
 20
-1277.488537194776
 30
0.0
 40
0.01
100
AcDbArc
 50
90.0
 51
180.0
  0
LINE
  5
86C2E
330
86969
100
AcDbEntity
  8
ESF_Spielgeraet
100
AcDbLine
 10
11818.0535137522
 20
-1277.4786467487
 30
0.0
 11
11818.02601438521
 21
-1277.4786467487
 31
0.0
  0
LINE
  5
86C2F
330
86969
100
AcDbEntity
  8
ESF_Spielgeraet
100
AcDbLine
 10
11819.66351311918
 20
-1277.4786467487
 30
0.0
 11
11819.69101438521
 21
-1277.4786467487
 31
0.0
  0
LINE
  5
86C30
330
86969
100
AcDbEntity
  8
ESF_Spielgeraet
100
AcDbLine
 10
11818.02601438521
 20
-1277.4786467487
 30
0.0
 11
11818.02601438521
 21
-1276.8892467487
 31
0.0
  0
LINE
  5
86C31
330
86969
100
AcDbEntity
  8
ESF_Spielgeraet
100
AcDbLine
 10
11818.07431438521
 20
-1277.4786467487
 30
0.0
 11
11818.07431438521
 21
-1277.478537194776
 31
0.0
  0
LINE
  5
86C32
330
86969
100
AcDbEntity
  8
ESF_Spielgeraet
100
AcDbLine
 10
11818.07431438521
 20
-1277.1408467487
 30
0.0
 11
11818.07431438521
 21
-1277.0822667487
 31
0.0
  0
LINE
  5
86C33
330
86969
100
AcDbEntity
  8
ESF_Spielgeraet
100
AcDbLine
 10
11818.02601438521
 20
-1276.8892467487
 30
0.0
 11
11819.69101438521
 21
-1276.8892467487
 31
0.0
  0
LINE
  5
86C34
330
86969
100
AcDbEntity
  8
ESF_Spielgeraet
100
AcDbLine
 10
11819.69101438521
 20
-1276.8892467487
 30
0.0
 11
11819.69101438521
 21
-1277.4786467487
 31
0.0
  0
LINE
  5
86C35
330
86969
100
AcDbEntity
  8
ESF_Spielgeraet
100
AcDbLine
 10
11819.64271438521
 20
-1277.0822667487
 30
0.0
 11
11819.64271438521
 21
-1277.1408467487
 31
0.0
  0
LINE
  5
86C36
330
86969
100
AcDbEntity
  8
ESF_Spielgeraet
100
AcDbLine
 10
11819.69101438521
 20
-1276.8892467487
 30
0.0
 11
11819.65705449802
 21
-1276.923206635889
 31
0.0
  0
LINE
  5
86C37
330
86969
100
AcDbEntity
  8
ESF_Spielgeraet
100
AcDbLine
 10
11818.02601438521
 20
-1276.8892467487
 30
0.0
 11
11818.05999231082
 21
-1276.923224674313
 31
0.0
  0
LINE
  5
86C38
330
86969
100
AcDbEntity
  8
ESF_Spielgeraet
100
AcDbLine
 10
11819.31265443801
 20
-1276.92035424866
 30
0.0
 11
11819.25610801033
 21
-1276.92035424866
 31
0.0
  0
LINE
  5
86C39
330
86969
100
AcDbEntity
  8
ESF_Spielgeraet
100
AcDbLine
 10
11819.31265443801
 20
-1276.958771895829
 30
0.0
 11
11819.25610801033
 21
-1276.958771895829
 31
0.0
  0
LINE
  5
86C3A
330
86969
100
AcDbEntity
  8
ESF_Spielgeraet
100
AcDbLine
 10
11819.32265443801
 20
-1276.93035424866
 30
0.0
 11
11819.32265443801
 21
-1276.948771895829
 31
0.0
  0
ARC
  5
86C3B
330
86969
100
AcDbEntity
  8
ESF_Spielgeraet
100
AcDbCircle
 10
11819.31265443801
 20
-1276.93035424866
 30
0.0
 40
0.01
100
AcDbArc
 50
0.0
 51
90.0
  0
ARC
  5
86C3C
330
86969
100
AcDbEntity
  8
ESF_Spielgeraet
100
AcDbCircle
 10
11819.31265443801
 20
-1276.948771895829
 30
0.0
 40
0.01
100
AcDbArc
 50
270.0
 51
0.0
  0
LINE
  5
86C3D
330
86969
100
AcDbEntity
  8
ESF_Spielgeraet
100
AcDbLine
 10
11819.24610801033
 20
-1276.93035424866
 30
0.0
 11
11819.24610801033
 21
-1276.948771895829
 31
0.0
  0
ARC
  5
86C3E
330
86969
100
AcDbEntity
  8
ESF_Spielgeraet
100
AcDbCircle
 10
11819.25610801033
 20
-1276.93035424866
 30
0.0
 40
0.01
100
AcDbArc
 50
90.0
 51
180.0
  0
ARC
  5
86C3F
330
86969
100
AcDbEntity
  8
ESF_Spielgeraet
100
AcDbCircle
 10
11819.25610801033
 20
-1276.948771895829
 30
0.0
 40
0.01
100
AcDbArc
 50
180.0
 51
270.0
  0
LINE
  5
86C40
330
86969
100
AcDbEntity
  8
ESF_Spielgeraet
100
AcDbLine
 10
11819.24610801033
 20
-1276.948771895829
 30
0.0
 11
11819.24610801033
 21
-1277.0722667487
 31
0.0
  0
LINE
  5
86C41
330
86969
100
AcDbEntity
  8
ESF_Spielgeraet
100
AcDbLine
 10
11819.32265443801
 20
-1276.948771895829
 30
0.0
 11
11819.32265443801
 21
-1277.0722667487
 31
0.0
  0
LINE
  5
86C42
330
86969
100
AcDbEntity
  8
ESF_Spielgeraet
100
AcDbLine
 10
11819.33851438521
 20
-1277.0822667487
 30
0.0
 11
11819.39506081289
 21
-1277.0822667487
 31
0.0
  0
ARC
  5
86C43
330
86969
100
AcDbEntity
  8
ESF_Spielgeraet
100
AcDbCircle
 10
11819.39506081289
 20
-1277.0722667487
 30
0.0
 40
0.01
100
AcDbArc
 50
270.0
 51
0.0
  0
ARC
  5
86C44
330
86969
100
AcDbEntity
  8
ESF_Spielgeraet
100
AcDbCircle
 10
11819.33851438521
 20
-1277.0722667487
 30
0.0
 40
0.01
100
AcDbArc
 50
180.0
 51
270.0
  0
LINE
  5
86C45
330
86969
100
AcDbEntity
  8
ESF_Spielgeraet
100
AcDbLine
 10
11819.39506081289
 20
-1276.92035424866
 30
0.0
 11
11819.33851438521
 21
-1276.92035424866
 31
0.0
  0
LINE
  5
86C46
330
86969
100
AcDbEntity
  8
ESF_Spielgeraet
100
AcDbLine
 10
11819.39506081289
 20
-1276.958771895829
 30
0.0
 11
11819.33851438521
 21
-1276.958771895829
 31
0.0
  0
LINE
  5
86C47
330
86969
100
AcDbEntity
  8
ESF_Spielgeraet
100
AcDbLine
 10
11819.40506081289
 20
-1276.93035424866
 30
0.0
 11
11819.40506081289
 21
-1276.948771895829
 31
0.0
  0
ARC
  5
86C48
330
86969
100
AcDbEntity
  8
ESF_Spielgeraet
100
AcDbCircle
 10
11819.39506081289
 20
-1276.93035424866
 30
0.0
 40
0.01
100
AcDbArc
 50
0.0
 51
90.0
  0
ARC
  5
86C49
330
86969
100
AcDbEntity
  8
ESF_Spielgeraet
100
AcDbCircle
 10
11819.39506081289
 20
-1276.948771895829
 30
0.0
 40
0.01
100
AcDbArc
 50
270.0
 51
0.0
  0
LINE
  5
86C4A
330
86969
100
AcDbEntity
  8
ESF_Spielgeraet
100
AcDbLine
 10
11819.32851438521
 20
-1276.93035424866
 30
0.0
 11
11819.32851438521
 21
-1276.948771895829
 31
0.0
  0
ARC
  5
86C4B
330
86969
100
AcDbEntity
  8
ESF_Spielgeraet
100
AcDbCircle
 10
11819.33851438521
 20
-1276.93035424866
 30
0.0
 40
0.01
100
AcDbArc
 50
90.0
 51
180.0
  0
ARC
  5
86C4C
330
86969
100
AcDbEntity
  8
ESF_Spielgeraet
100
AcDbCircle
 10
11819.33851438521
 20
-1276.948771895829
 30
0.0
 40
0.01
100
AcDbArc
 50
180.0
 51
270.0
  0
LINE
  5
86C4D
330
86969
100
AcDbEntity
  8
ESF_Spielgeraet
100
AcDbLine
 10
11819.32851438521
 20
-1276.948771895829
 30
0.0
 11
11819.32851438521
 21
-1277.0722667487
 31
0.0
  0
LINE
  5
86C4E
330
86969
100
AcDbEntity
  8
ESF_Spielgeraet
100
AcDbLine
 10
11819.40506081289
 20
-1276.948771895829
 30
0.0
 11
11819.40506081289
 21
-1277.0722667487
 31
0.0
  0
LINE
  5
86C4F
330
86969
100
AcDbEntity
  8
ESF_Spielgeraet
100
AcDbLine
 10
11819.42351438521
 20
-1277.0822667487
 30
0.0
 11
11819.48006081289
 21
-1277.0822667487
 31
0.0
  0
ARC
  5
86C50
330
86969
100
AcDbEntity
  8
ESF_Spielgeraet
100
AcDbCircle
 10
11819.48006081289
 20
-1277.0722667487
 30
0.0
 40
0.01
100
AcDbArc
 50
270.0
 51
0.0
  0
ARC
  5
86C51
330
86969
100
AcDbEntity
  8
ESF_Spielgeraet
100
AcDbCircle
 10
11819.42351438521
 20
-1277.0722667487
 30
0.0
 40
0.01
100
AcDbArc
 50
180.0
 51
270.0
  0
LINE
  5
86C52
330
86969
100
AcDbEntity
  8
ESF_Spielgeraet
100
AcDbLine
 10
11819.48006081289
 20
-1276.92035424866
 30
0.0
 11
11819.42351438521
 21
-1276.92035424866
 31
0.0
  0
LINE
  5
86C53
330
86969
100
AcDbEntity
  8
ESF_Spielgeraet
100
AcDbLine
 10
11819.48006081289
 20
-1276.958771895829
 30
0.0
 11
11819.42351438521
 21
-1276.958771895829
 31
0.0
  0
LINE
  5
86C54
330
86969
100
AcDbEntity
  8
ESF_Spielgeraet
100
AcDbLine
 10
11819.49006081289
 20
-1276.93035424866
 30
0.0
 11
11819.49006081289
 21
-1276.948771895829
 31
0.0
  0
ARC
  5
86C55
330
86969
100
AcDbEntity
  8
ESF_Spielgeraet
100
AcDbCircle
 10
11819.48006081289
 20
-1276.93035424866
 30
0.0
 40
0.01
100
AcDbArc
 50
0.0
 51
90.0
  0
ARC
  5
86C56
330
86969
100
AcDbEntity
  8
ESF_Spielgeraet
100
AcDbCircle
 10
11819.48006081289
 20
-1276.948771895829
 30
0.0
 40
0.01
100
AcDbArc
 50
270.0
 51
0.0
  0
LINE
  5
86C57
330
86969
100
AcDbEntity
  8
ESF_Spielgeraet
100
AcDbLine
 10
11819.41351438521
 20
-1276.93035424866
 30
0.0
 11
11819.41351438521
 21
-1276.948771895829
 31
0.0
  0
ARC
  5
86C58
330
86969
100
AcDbEntity
  8
ESF_Spielgeraet
100
AcDbCircle
 10
11819.42351438521
 20
-1276.93035424866
 30
0.0
 40
0.01
100
AcDbArc
 50
90.0
 51
180.0
  0
ARC
  5
86C59
330
86969
100
AcDbEntity
  8
ESF_Spielgeraet
100
AcDbCircle
 10
11819.42351438521
 20
-1276.948771895829
 30
0.0
 40
0.01
100
AcDbArc
 50
180.0
 51
270.0
  0
LINE
  5
86C5A
330
86969
100
AcDbEntity
  8
ESF_Spielgeraet
100
AcDbLine
 10
11819.41351438521
 20
-1276.948771895829
 30
0.0
 11
11819.41351438521
 21
-1277.0722667487
 31
0.0
  0
LINE
  5
86C5B
330
86969
100
AcDbEntity
  8
ESF_Spielgeraet
100
AcDbLine
 10
11819.49006081289
 20
-1276.948771895829
 30
0.0
 11
11819.49006081289
 21
-1277.0722667487
 31
0.0
  0
LINE
  5
86C5C
330
86969
100
AcDbEntity
  8
ESF_Spielgeraet
100
AcDbLine
 10
11819.50851438521
 20
-1277.0822667487
 30
0.0
 11
11819.56506081289
 21
-1277.0822667487
 31
0.0
  0
ARC
  5
86C5D
330
86969
100
AcDbEntity
  8
ESF_Spielgeraet
100
AcDbCircle
 10
11819.56506081289
 20
-1277.0722667487
 30
0.0
 40
0.01
100
AcDbArc
 50
270.0
 51
0.0
  0
ARC
  5
86C5E
330
86969
100
AcDbEntity
  8
ESF_Spielgeraet
100
AcDbCircle
 10
11819.50851438521
 20
-1277.0722667487
 30
0.0
 40
0.01
100
AcDbArc
 50
180.0
 51
270.0
  0
LINE
  5
86C5F
330
86969
100
AcDbEntity
  8
ESF_Spielgeraet
100
AcDbLine
 10
11819.56506081289
 20
-1276.92035424866
 30
0.0
 11
11819.50851438521
 21
-1276.92035424866
 31
0.0
  0
LINE
  5
86C60
330
86969
100
AcDbEntity
  8
ESF_Spielgeraet
100
AcDbLine
 10
11819.56506081289
 20
-1276.958771895829
 30
0.0
 11
11819.50851438521
 21
-1276.958771895829
 31
0.0
  0
LINE
  5
86C61
330
86969
100
AcDbEntity
  8
ESF_Spielgeraet
100
AcDbLine
 10
11819.57506081289
 20
-1276.93035424866
 30
0.0
 11
11819.57506081289
 21
-1276.948771895829
 31
0.0
  0
ARC
  5
86C62
330
86969
100
AcDbEntity
  8
ESF_Spielgeraet
100
AcDbCircle
 10
11819.56506081289
 20
-1276.93035424866
 30
0.0
 40
0.01
100
AcDbArc
 50
0.0
 51
90.0
  0
ARC
  5
86C63
330
86969
100
AcDbEntity
  8
ESF_Spielgeraet
100
AcDbCircle
 10
11819.56506081289
 20
-1276.948771895829
 30
0.0
 40
0.01
100
AcDbArc
 50
270.0
 51
0.0
  0
LINE
  5
86C64
330
86969
100
AcDbEntity
  8
ESF_Spielgeraet
100
AcDbLine
 10
11819.49851438521
 20
-1276.93035424866
 30
0.0
 11
11819.49851438521
 21
-1276.948771895829
 31
0.0
  0
ARC
  5
86C65
330
86969
100
AcDbEntity
  8
ESF_Spielgeraet
100
AcDbCircle
 10
11819.50851438521
 20
-1276.93035424866
 30
0.0
 40
0.01
100
AcDbArc
 50
90.0
 51
180.0
  0
ARC
  5
86C66
330
86969
100
AcDbEntity
  8
ESF_Spielgeraet
100
AcDbCircle
 10
11819.50851438521
 20
-1276.948771895829
 30
0.0
 40
0.01
100
AcDbArc
 50
180.0
 51
270.0
  0
LINE
  5
86C67
330
86969
100
AcDbEntity
  8
ESF_Spielgeraet
100
AcDbLine
 10
11819.49851438521
 20
-1276.948771895829
 30
0.0
 11
11819.49851438521
 21
-1277.0722667487
 31
0.0
  0
LINE
  5
86C68
330
86969
100
AcDbEntity
  8
ESF_Spielgeraet
100
AcDbLine
 10
11819.57506081289
 20
-1276.948771895829
 30
0.0
 11
11819.57506081289
 21
-1277.0722667487
 31
0.0
  0
LINE
  5
86C69
330
86969
100
AcDbEntity
  8
ESF_Spielgeraet
100
AcDbLine
 10
11819.59351438521
 20
-1277.0822667487
 30
0.0
 11
11819.65006081289
 21
-1277.0822667487
 31
0.0
  0
ARC
  5
86C6A
330
86969
100
AcDbEntity
  8
ESF_Spielgeraet
100
AcDbCircle
 10
11819.65006081289
 20
-1277.0722667487
 30
0.0
 40
0.01
100
AcDbArc
 50
270.0
 51
0.0
  0
ARC
  5
86C6B
330
86969
100
AcDbEntity
  8
ESF_Spielgeraet
100
AcDbCircle
 10
11819.59351438521
 20
-1277.0722667487
 30
0.0
 40
0.01
100
AcDbArc
 50
180.0
 51
270.0
  0
LINE
  5
86C6C
330
86969
100
AcDbEntity
  8
ESF_Spielgeraet
100
AcDbLine
 10
11819.65006081289
 20
-1276.92035424866
 30
0.0
 11
11819.59351438521
 21
-1276.92035424866
 31
0.0
  0
LINE
  5
86C6D
330
86969
100
AcDbEntity
  8
ESF_Spielgeraet
100
AcDbLine
 10
11819.65006081289
 20
-1276.958771895829
 30
0.0
 11
11819.59351438521
 21
-1276.958771895829
 31
0.0
  0
LINE
  5
86C6E
330
86969
100
AcDbEntity
  8
ESF_Spielgeraet
100
AcDbLine
 10
11819.66006081289
 20
-1276.93035424866
 30
0.0
 11
11819.66006081289
 21
-1276.948771895829
 31
0.0
  0
ARC
  5
86C6F
330
86969
100
AcDbEntity
  8
ESF_Spielgeraet
100
AcDbCircle
 10
11819.65006081289
 20
-1276.93035424866
 30
0.0
 40
0.01
100
AcDbArc
 50
0.0
 51
90.0
  0
ARC
  5
86C70
330
86969
100
AcDbEntity
  8
ESF_Spielgeraet
100
AcDbCircle
 10
11819.65006081289
 20
-1276.948771895829
 30
0.0
 40
0.01
100
AcDbArc
 50
270.0
 51
0.0
  0
LINE
  5
86C71
330
86969
100
AcDbEntity
  8
ESF_Spielgeraet
100
AcDbLine
 10
11819.58351438521
 20
-1276.93035424866
 30
0.0
 11
11819.58351438521
 21
-1276.948771895829
 31
0.0
  0
ARC
  5
86C72
330
86969
100
AcDbEntity
  8
ESF_Spielgeraet
100
AcDbCircle
 10
11819.59351438521
 20
-1276.93035424866
 30
0.0
 40
0.01
100
AcDbArc
 50
90.0
 51
180.0
  0
ARC
  5
86C73
330
86969
100
AcDbEntity
  8
ESF_Spielgeraet
100
AcDbCircle
 10
11819.59351438521
 20
-1276.948771895829
 30
0.0
 40
0.01
100
AcDbArc
 50
180.0
 51
270.0
  0
LINE
  5
86C74
330
86969
100
AcDbEntity
  8
ESF_Spielgeraet
100
AcDbLine
 10
11819.58351438521
 20
-1276.948771895829
 30
0.0
 11
11819.58351438521
 21
-1277.0722667487
 31
0.0
  0
LINE
  5
86C75
330
86969
100
AcDbEntity
  8
ESF_Spielgeraet
100
AcDbLine
 10
11819.66006081289
 20
-1276.948771895829
 30
0.0
 11
11819.66006081289
 21
-1277.0722667487
 31
0.0
  0
LINE
  5
86C76
330
86969
100
AcDbEntity
  8
ESF_Spielgeraet
100
AcDbLine
 10
11818.83166907689
 20
-1277.0822667487
 30
0.0
 11
11818.88821550457
 21
-1277.0822667487
 31
0.0
  0
ARC
  5
86C77
330
86969
100
AcDbEntity
  8
ESF_Spielgeraet
100
AcDbCircle
 10
11818.88821550457
 20
-1277.0722667487
 30
0.0
 40
0.01
100
AcDbArc
 50
270.0
 51
0.0
  0
ARC
  5
86C78
330
86969
100
AcDbEntity
  8
ESF_Spielgeraet
100
AcDbCircle
 10
11818.83166907689
 20
-1277.0722667487
 30
0.0
 40
0.01
100
AcDbArc
 50
180.0
 51
270.0
  0
LINE
  5
86C79
330
86969
100
AcDbEntity
  8
ESF_Spielgeraet
100
AcDbLine
 10
11818.88821550457
 20
-1276.92035424866
 30
0.0
 11
11818.83166907689
 21
-1276.92035424866
 31
0.0
  0
LINE
  5
86C7A
330
86969
100
AcDbEntity
  8
ESF_Spielgeraet
100
AcDbLine
 10
11818.88821550457
 20
-1276.958771895829
 30
0.0
 11
11818.83166907689
 21
-1276.958771895829
 31
0.0
  0
LINE
  5
86C7B
330
86969
100
AcDbEntity
  8
ESF_Spielgeraet
100
AcDbLine
 10
11818.89821550457
 20
-1276.93035424866
 30
0.0
 11
11818.89821550457
 21
-1276.948771895829
 31
0.0
  0
ARC
  5
86C7C
330
86969
100
AcDbEntity
  8
ESF_Spielgeraet
100
AcDbCircle
 10
11818.88821550457
 20
-1276.93035424866
 30
0.0
 40
0.01
100
AcDbArc
 50
0.0
 51
90.0
  0
ARC
  5
86C7D
330
86969
100
AcDbEntity
  8
ESF_Spielgeraet
100
AcDbCircle
 10
11818.88821550457
 20
-1276.948771895829
 30
0.0
 40
0.01
100
AcDbArc
 50
270.0
 51
0.0
  0
LINE
  5
86C7E
330
86969
100
AcDbEntity
  8
ESF_Spielgeraet
100
AcDbLine
 10
11818.82166907689
 20
-1276.93035424866
 30
0.0
 11
11818.82166907689
 21
-1276.948771895829
 31
0.0
  0
ARC
  5
86C7F
330
86969
100
AcDbEntity
  8
ESF_Spielgeraet
100
AcDbCircle
 10
11818.83166907689
 20
-1276.93035424866
 30
0.0
 40
0.01
100
AcDbArc
 50
90.0
 51
180.0
  0
ARC
  5
86C80
330
86969
100
AcDbEntity
  8
ESF_Spielgeraet
100
AcDbCircle
 10
11818.83166907689
 20
-1276.948771895829
 30
0.0
 40
0.01
100
AcDbArc
 50
180.0
 51
270.0
  0
LINE
  5
86C81
330
86969
100
AcDbEntity
  8
ESF_Spielgeraet
100
AcDbLine
 10
11818.82166907689
 20
-1276.948771895829
 30
0.0
 11
11818.82166907689
 21
-1277.0722667487
 31
0.0
  0
LINE
  5
86C82
330
86969
100
AcDbEntity
  8
ESF_Spielgeraet
100
AcDbLine
 10
11818.89821550457
 20
-1276.948771895829
 30
0.0
 11
11818.89821550457
 21
-1277.0722667487
 31
0.0
  0
LINE
  5
86C83
330
86969
100
AcDbEntity
  8
ESF_Spielgeraet
100
AcDbLine
 10
11818.91407545177
 20
-1277.0822667487
 30
0.0
 11
11818.97062187945
 21
-1277.0822667487
 31
0.0
  0
ARC
  5
86C84
330
86969
100
AcDbEntity
  8
ESF_Spielgeraet
100
AcDbCircle
 10
11818.97062187945
 20
-1277.0722667487
 30
0.0
 40
0.01
100
AcDbArc
 50
270.0
 51
0.0
  0
ARC
  5
86C85
330
86969
100
AcDbEntity
  8
ESF_Spielgeraet
100
AcDbCircle
 10
11818.91407545177
 20
-1277.0722667487
 30
0.0
 40
0.01
100
AcDbArc
 50
180.0
 51
270.0
  0
LINE
  5
86C86
330
86969
100
AcDbEntity
  8
ESF_Spielgeraet
100
AcDbLine
 10
11818.97062187945
 20
-1276.92035424866
 30
0.0
 11
11818.91407545177
 21
-1276.92035424866
 31
0.0
  0
LINE
  5
86C87
330
86969
100
AcDbEntity
  8
ESF_Spielgeraet
100
AcDbLine
 10
11818.97062187945
 20
-1276.958771895829
 30
0.0
 11
11818.91407545177
 21
-1276.958771895829
 31
0.0
  0
LINE
  5
86C88
330
86969
100
AcDbEntity
  8
ESF_Spielgeraet
100
AcDbLine
 10
11818.98062187945
 20
-1276.93035424866
 30
0.0
 11
11818.98062187945
 21
-1276.948771895829
 31
0.0
  0
ARC
  5
86C89
330
86969
100
AcDbEntity
  8
ESF_Spielgeraet
100
AcDbCircle
 10
11818.97062187945
 20
-1276.93035424866
 30
0.0
 40
0.01
100
AcDbArc
 50
0.0
 51
90.0
  0
ARC
  5
86C8A
330
86969
100
AcDbEntity
  8
ESF_Spielgeraet
100
AcDbCircle
 10
11818.97062187945
 20
-1276.948771895829
 30
0.0
 40
0.01
100
AcDbArc
 50
270.0
 51
0.0
  0
LINE
  5
86C8B
330
86969
100
AcDbEntity
  8
ESF_Spielgeraet
100
AcDbLine
 10
11818.90407545177
 20
-1276.93035424866
 30
0.0
 11
11818.90407545177
 21
-1276.948771895829
 31
0.0
  0
ARC
  5
86C8C
330
86969
100
AcDbEntity
  8
ESF_Spielgeraet
100
AcDbCircle
 10
11818.91407545177
 20
-1276.93035424866
 30
0.0
 40
0.01
100
AcDbArc
 50
90.0
 51
180.0
  0
ARC
  5
86C8D
330
86969
100
AcDbEntity
  8
ESF_Spielgeraet
100
AcDbCircle
 10
11818.91407545177
 20
-1276.948771895829
 30
0.0
 40
0.01
100
AcDbArc
 50
180.0
 51
270.0
  0
LINE
  5
86C8E
330
86969
100
AcDbEntity
  8
ESF_Spielgeraet
100
AcDbLine
 10
11818.90407545177
 20
-1276.948771895829
 30
0.0
 11
11818.90407545177
 21
-1277.0722667487
 31
0.0
  0
LINE
  5
86C8F
330
86969
100
AcDbEntity
  8
ESF_Spielgeraet
100
AcDbLine
 10
11818.98062187945
 20
-1276.948771895829
 30
0.0
 11
11818.98062187945
 21
-1277.0722667487
 31
0.0
  0
LINE
  5
86C90
330
86969
100
AcDbEntity
  8
ESF_Spielgeraet
100
AcDbLine
 10
11818.99907545177
 20
-1277.0822667487
 30
0.0
 11
11819.05562187945
 21
-1277.0822667487
 31
0.0
  0
ARC
  5
86C91
330
86969
100
AcDbEntity
  8
ESF_Spielgeraet
100
AcDbCircle
 10
11819.05562187945
 20
-1277.0722667487
 30
0.0
 40
0.01
100
AcDbArc
 50
270.0
 51
0.0
  0
ARC
  5
86C92
330
86969
100
AcDbEntity
  8
ESF_Spielgeraet
100
AcDbCircle
 10
11818.99907545177
 20
-1277.0722667487
 30
0.0
 40
0.01
100
AcDbArc
 50
180.0
 51
270.0
  0
LINE
  5
86C93
330
86969
100
AcDbEntity
  8
ESF_Spielgeraet
100
AcDbLine
 10
11819.05562187945
 20
-1276.92035424866
 30
0.0
 11
11818.99907545177
 21
-1276.92035424866
 31
0.0
  0
LINE
  5
86C94
330
86969
100
AcDbEntity
  8
ESF_Spielgeraet
100
AcDbLine
 10
11819.05562187945
 20
-1276.958771895829
 30
0.0
 11
11818.99907545177
 21
-1276.958771895829
 31
0.0
  0
LINE
  5
86C95
330
86969
100
AcDbEntity
  8
ESF_Spielgeraet
100
AcDbLine
 10
11819.06562187945
 20
-1276.93035424866
 30
0.0
 11
11819.06562187945
 21
-1276.948771895829
 31
0.0
  0
ARC
  5
86C96
330
86969
100
AcDbEntity
  8
ESF_Spielgeraet
100
AcDbCircle
 10
11819.05562187945
 20
-1276.93035424866
 30
0.0
 40
0.01
100
AcDbArc
 50
0.0
 51
90.0
  0
ARC
  5
86C97
330
86969
100
AcDbEntity
  8
ESF_Spielgeraet
100
AcDbCircle
 10
11819.05562187945
 20
-1276.948771895829
 30
0.0
 40
0.01
100
AcDbArc
 50
270.0
 51
0.0
  0
LINE
  5
86C98
330
86969
100
AcDbEntity
  8
ESF_Spielgeraet
100
AcDbLine
 10
11818.98907545177
 20
-1276.93035424866
 30
0.0
 11
11818.98907545177
 21
-1276.948771895829
 31
0.0
  0
ARC
  5
86C99
330
86969
100
AcDbEntity
  8
ESF_Spielgeraet
100
AcDbCircle
 10
11818.99907545177
 20
-1276.93035424866
 30
0.0
 40
0.01
100
AcDbArc
 50
90.0
 51
180.0
  0
ARC
  5
86C9A
330
86969
100
AcDbEntity
  8
ESF_Spielgeraet
100
AcDbCircle
 10
11818.99907545177
 20
-1276.948771895829
 30
0.0
 40
0.01
100
AcDbArc
 50
180.0
 51
270.0
  0
LINE
  5
86C9B
330
86969
100
AcDbEntity
  8
ESF_Spielgeraet
100
AcDbLine
 10
11818.98907545177
 20
-1276.948771895829
 30
0.0
 11
11818.98907545177
 21
-1277.0722667487
 31
0.0
  0
LINE
  5
86C9C
330
86969
100
AcDbEntity
  8
ESF_Spielgeraet
100
AcDbLine
 10
11819.06562187945
 20
-1276.948771895829
 30
0.0
 11
11819.06562187945
 21
-1277.0722667487
 31
0.0
  0
LINE
  5
86C9D
330
86969
100
AcDbEntity
  8
ESF_Spielgeraet
100
AcDbLine
 10
11819.08407545177
 20
-1277.0822667487
 30
0.0
 11
11819.13201438521
 21
-1277.0822667487
 31
0.0
  0
ARC
  5
86C9E
330
86969
100
AcDbEntity
  8
ESF_Spielgeraet
100
AcDbCircle
 10
11819.08407545177
 20
-1277.0722667487
 30
0.0
 40
0.01
100
AcDbArc
 50
180.0
 51
270.0
  0
LINE
  5
86C9F
330
86969
100
AcDbEntity
  8
ESF_Spielgeraet
100
AcDbLine
 10
11819.14062187945
 20
-1276.92035424866
 30
0.0
 11
11819.08407545177
 21
-1276.92035424866
 31
0.0
  0
LINE
  5
86CA0
330
86969
100
AcDbEntity
  8
ESF_Spielgeraet
100
AcDbLine
 10
11819.14062187945
 20
-1276.958771895829
 30
0.0
 11
11819.08407545177
 21
-1276.958771895829
 31
0.0
  0
LINE
  5
86CA1
330
86969
100
AcDbEntity
  8
ESF_Spielgeraet
100
AcDbLine
 10
11819.15062187945
 20
-1276.93035424866
 30
0.0
 11
11819.15062187945
 21
-1276.948771895829
 31
0.0
  0
ARC
  5
86CA2
330
86969
100
AcDbEntity
  8
ESF_Spielgeraet
100
AcDbCircle
 10
11819.14062187945
 20
-1276.93035424866
 30
0.0
 40
0.01
100
AcDbArc
 50
0.0
 51
90.0
  0
ARC
  5
86CA3
330
86969
100
AcDbEntity
  8
ESF_Spielgeraet
100
AcDbCircle
 10
11819.14062187945
 20
-1276.948771895829
 30
0.0
 40
0.01
100
AcDbArc
 50
270.0
 51
0.0
  0
LINE
  5
86CA4
330
86969
100
AcDbEntity
  8
ESF_Spielgeraet
100
AcDbLine
 10
11819.07407545177
 20
-1276.93035424866
 30
0.0
 11
11819.07407545177
 21
-1276.948771895829
 31
0.0
  0
ARC
  5
86CA5
330
86969
100
AcDbEntity
  8
ESF_Spielgeraet
100
AcDbCircle
 10
11819.08407545177
 20
-1276.93035424866
 30
0.0
 40
0.01
100
AcDbArc
 50
90.0
 51
180.0
  0
ARC
  5
86CA6
330
86969
100
AcDbEntity
  8
ESF_Spielgeraet
100
AcDbCircle
 10
11819.08407545177
 20
-1276.948771895829
 30
0.0
 40
0.01
100
AcDbArc
 50
180.0
 51
270.0
  0
LINE
  5
86CA7
330
86969
100
AcDbEntity
  8
ESF_Spielgeraet
100
AcDbLine
 10
11819.07407545177
 20
-1276.948771895829
 30
0.0
 11
11819.07407545177
 21
-1277.0722667487
 31
0.0
  0
LINE
  5
86CA8
330
86969
100
AcDbEntity
  8
ESF_Spielgeraet
100
AcDbLine
 10
11819.15062187945
 20
-1276.948771895829
 30
0.0
 11
11819.15062187945
 21
-1277.050079461986
 31
0.0
  0
LINE
  5
86CA9
330
86969
100
AcDbEntity
  8
ESF_Spielgeraet
100
AcDbLine
 10
11819.18001438521
 20
-1277.0822667487
 30
0.0
 11
11819.22562187945
 21
-1277.0822667487
 31
0.0
  0
ARC
  5
86CAA
330
86969
100
AcDbEntity
  8
ESF_Spielgeraet
100
AcDbCircle
 10
11819.22562187945
 20
-1277.0722667487
 30
0.0
 40
0.01
100
AcDbArc
 50
270.0
 51
0.0
  0
LINE
  5
86CAB
330
86969
100
AcDbEntity
  8
ESF_Spielgeraet
100
AcDbLine
 10
11819.22562187945
 20
-1276.92035424866
 30
0.0
 11
11819.16907545177
 21
-1276.92035424866
 31
0.0
  0
LINE
  5
86CAC
330
86969
100
AcDbEntity
  8
ESF_Spielgeraet
100
AcDbLine
 10
11819.22562187945
 20
-1276.958771895829
 30
0.0
 11
11819.16907545177
 21
-1276.958771895829
 31
0.0
  0
LINE
  5
86CAD
330
86969
100
AcDbEntity
  8
ESF_Spielgeraet
100
AcDbLine
 10
11819.23562187945
 20
-1276.93035424866
 30
0.0
 11
11819.23562187945
 21
-1276.948771895829
 31
0.0
  0
ARC
  5
86CAE
330
86969
100
AcDbEntity
  8
ESF_Spielgeraet
100
AcDbCircle
 10
11819.22562187945
 20
-1276.93035424866
 30
0.0
 40
0.01
100
AcDbArc
 50
0.0
 51
90.0
  0
ARC
  5
86CAF
330
86969
100
AcDbEntity
  8
ESF_Spielgeraet
100
AcDbCircle
 10
11819.22562187945
 20
-1276.948771895829
 30
0.0
 40
0.01
100
AcDbArc
 50
270.0
 51
0.0
  0
LINE
  5
86CB0
330
86969
100
AcDbEntity
  8
ESF_Spielgeraet
100
AcDbLine
 10
11819.15907545177
 20
-1276.93035424866
 30
0.0
 11
11819.15907545177
 21
-1276.948771895829
 31
0.0
  0
ARC
  5
86CB1
330
86969
100
AcDbEntity
  8
ESF_Spielgeraet
100
AcDbCircle
 10
11819.16907545177
 20
-1276.93035424866
 30
0.0
 40
0.01
100
AcDbArc
 50
90.0
 51
180.0
  0
ARC
  5
86CB2
330
86969
100
AcDbEntity
  8
ESF_Spielgeraet
100
AcDbCircle
 10
11819.16907545177
 20
-1276.948771895829
 30
0.0
 40
0.01
100
AcDbArc
 50
180.0
 51
270.0
  0
LINE
  5
86CB3
330
86969
100
AcDbEntity
  8
ESF_Spielgeraet
100
AcDbLine
 10
11819.15907545177
 20
-1276.948771895829
 30
0.0
 11
11819.15907545177
 21
-1277.04966181306
 31
0.0
  0
LINE
  5
86CB4
330
86969
100
AcDbEntity
  8
ESF_Spielgeraet
100
AcDbLine
 10
11819.23562187945
 20
-1276.948771895829
 30
0.0
 11
11819.23562187945
 21
-1277.0722667487
 31
0.0
  0
LINE
  5
86CB5
330
86969
100
AcDbEntity
  8
ESF_Spielgeraet
100
AcDbLine
 10
11818.40959800908
 20
-1277.0822667487
 30
0.0
 11
11818.46614443676
 21
-1277.0822667487
 31
0.0
  0
ARC
  5
86CB6
330
86969
100
AcDbEntity
  8
ESF_Spielgeraet
100
AcDbCircle
 10
11818.46614443676
 20
-1277.0722667487
 30
0.0
 40
0.01
100
AcDbArc
 50
270.0
 51
0.0
  0
ARC
  5
86CB7
330
86969
100
AcDbEntity
  8
ESF_Spielgeraet
100
AcDbCircle
 10
11818.40959800908
 20
-1277.0722667487
 30
0.0
 40
0.01
100
AcDbArc
 50
180.0
 51
270.0
  0
LINE
  5
86CB8
330
86969
100
AcDbEntity
  8
ESF_Spielgeraet
100
AcDbLine
 10
11818.46614443676
 20
-1276.92035424866
 30
0.0
 11
11818.40959800908
 21
-1276.92035424866
 31
0.0
  0
LINE
  5
86CB9
330
86969
100
AcDbEntity
  8
ESF_Spielgeraet
100
AcDbLine
 10
11818.46614443676
 20
-1276.958771895829
 30
0.0
 11
11818.40959800908
 21
-1276.958771895829
 31
0.0
  0
LINE
  5
86CBA
330
86969
100
AcDbEntity
  8
ESF_Spielgeraet
100
AcDbLine
 10
11818.47614443676
 20
-1276.93035424866
 30
0.0
 11
11818.47614443676
 21
-1276.948771895829
 31
0.0
  0
ARC
  5
86CBB
330
86969
100
AcDbEntity
  8
ESF_Spielgeraet
100
AcDbCircle
 10
11818.46614443676
 20
-1276.93035424866
 30
0.0
 40
0.01
100
AcDbArc
 50
0.0
 51
90.0
  0
ARC
  5
86CBC
330
86969
100
AcDbEntity
  8
ESF_Spielgeraet
100
AcDbCircle
 10
11818.46614443676
 20
-1276.948771895829
 30
0.0
 40
0.01
100
AcDbArc
 50
270.0
 51
0.0
  0
LINE
  5
86CBD
330
86969
100
AcDbEntity
  8
ESF_Spielgeraet
100
AcDbLine
 10
11818.39959800908
 20
-1276.93035424866
 30
0.0
 11
11818.39959800908
 21
-1276.948771895829
 31
0.0
  0
ARC
  5
86CBE
330
86969
100
AcDbEntity
  8
ESF_Spielgeraet
100
AcDbCircle
 10
11818.40959800908
 20
-1276.93035424866
 30
0.0
 40
0.01
100
AcDbArc
 50
90.0
 51
180.0
  0
ARC
  5
86CBF
330
86969
100
AcDbEntity
  8
ESF_Spielgeraet
100
AcDbCircle
 10
11818.40959800908
 20
-1276.948771895829
 30
0.0
 40
0.01
100
AcDbArc
 50
180.0
 51
270.0
  0
LINE
  5
86CC0
330
86969
100
AcDbEntity
  8
ESF_Spielgeraet
100
AcDbLine
 10
11818.39959800908
 20
-1276.948771895829
 30
0.0
 11
11818.39959800908
 21
-1277.0722667487
 31
0.0
  0
LINE
  5
86CC1
330
86969
100
AcDbEntity
  8
ESF_Spielgeraet
100
AcDbLine
 10
11818.47614443676
 20
-1276.948771895829
 30
0.0
 11
11818.47614443676
 21
-1277.0722667487
 31
0.0
  0
LINE
  5
86CC2
330
86969
100
AcDbEntity
  8
ESF_Spielgeraet
100
AcDbLine
 10
11818.49200438396
 20
-1277.0822667487
 30
0.0
 11
11818.54855081164
 21
-1277.0822667487
 31
0.0
  0
ARC
  5
86CC3
330
86969
100
AcDbEntity
  8
ESF_Spielgeraet
100
AcDbCircle
 10
11818.54855081164
 20
-1277.0722667487
 30
0.0
 40
0.01
100
AcDbArc
 50
270.0
 51
0.0
  0
ARC
  5
86CC4
330
86969
100
AcDbEntity
  8
ESF_Spielgeraet
100
AcDbCircle
 10
11818.49200438396
 20
-1277.0722667487
 30
0.0
 40
0.01
100
AcDbArc
 50
180.0
 51
270.0
  0
LINE
  5
86CC5
330
86969
100
AcDbEntity
  8
ESF_Spielgeraet
100
AcDbLine
 10
11818.54855081164
 20
-1276.92035424866
 30
0.0
 11
11818.49200438396
 21
-1276.92035424866
 31
0.0
  0
LINE
  5
86CC6
330
86969
100
AcDbEntity
  8
ESF_Spielgeraet
100
AcDbLine
 10
11818.54855081164
 20
-1276.958771895829
 30
0.0
 11
11818.49200438396
 21
-1276.958771895829
 31
0.0
  0
LINE
  5
86CC7
330
86969
100
AcDbEntity
  8
ESF_Spielgeraet
100
AcDbLine
 10
11818.55855081164
 20
-1276.93035424866
 30
0.0
 11
11818.55855081164
 21
-1276.948771895829
 31
0.0
  0
ARC
  5
86CC8
330
86969
100
AcDbEntity
  8
ESF_Spielgeraet
100
AcDbCircle
 10
11818.54855081164
 20
-1276.93035424866
 30
0.0
 40
0.01
100
AcDbArc
 50
0.0
 51
90.0
  0
ARC
  5
86CC9
330
86969
100
AcDbEntity
  8
ESF_Spielgeraet
100
AcDbCircle
 10
11818.54855081164
 20
-1276.948771895829
 30
0.0
 40
0.01
100
AcDbArc
 50
270.0
 51
0.0
  0
LINE
  5
86CCA
330
86969
100
AcDbEntity
  8
ESF_Spielgeraet
100
AcDbLine
 10
11818.48200438396
 20
-1276.93035424866
 30
0.0
 11
11818.48200438396
 21
-1276.948771895829
 31
0.0
  0
ARC
  5
86CCB
330
86969
100
AcDbEntity
  8
ESF_Spielgeraet
100
AcDbCircle
 10
11818.49200438396
 20
-1276.93035424866
 30
0.0
 40
0.01
100
AcDbArc
 50
90.0
 51
180.0
  0
ARC
  5
86CCC
330
86969
100
AcDbEntity
  8
ESF_Spielgeraet
100
AcDbCircle
 10
11818.49200438396
 20
-1276.948771895829
 30
0.0
 40
0.01
100
AcDbArc
 50
180.0
 51
270.0
  0
LINE
  5
86CCD
330
86969
100
AcDbEntity
  8
ESF_Spielgeraet
100
AcDbLine
 10
11818.48200438396
 20
-1276.948771895829
 30
0.0
 11
11818.48200438396
 21
-1277.0722667487
 31
0.0
  0
LINE
  5
86CCE
330
86969
100
AcDbEntity
  8
ESF_Spielgeraet
100
AcDbLine
 10
11818.55855081164
 20
-1276.948771895829
 30
0.0
 11
11818.55855081164
 21
-1277.0722667487
 31
0.0
  0
LINE
  5
86CCF
330
86969
100
AcDbEntity
  8
ESF_Spielgeraet
100
AcDbLine
 10
11818.57700438396
 20
-1277.0822667487
 30
0.0
 11
11818.63355081164
 21
-1277.0822667487
 31
0.0
  0
ARC
  5
86CD0
330
86969
100
AcDbEntity
  8
ESF_Spielgeraet
100
AcDbCircle
 10
11818.63355081164
 20
-1277.0722667487
 30
0.0
 40
0.01
100
AcDbArc
 50
270.0
 51
0.0
  0
ARC
  5
86CD1
330
86969
100
AcDbEntity
  8
ESF_Spielgeraet
100
AcDbCircle
 10
11818.57700438396
 20
-1277.0722667487
 30
0.0
 40
0.01
100
AcDbArc
 50
180.0
 51
270.0
  0
LINE
  5
86CD2
330
86969
100
AcDbEntity
  8
ESF_Spielgeraet
100
AcDbLine
 10
11818.63355081164
 20
-1276.92035424866
 30
0.0
 11
11818.57700438396
 21
-1276.92035424866
 31
0.0
  0
LINE
  5
86CD3
330
86969
100
AcDbEntity
  8
ESF_Spielgeraet
100
AcDbLine
 10
11818.63355081164
 20
-1276.958771895829
 30
0.0
 11
11818.57700438396
 21
-1276.958771895829
 31
0.0
  0
LINE
  5
86CD4
330
86969
100
AcDbEntity
  8
ESF_Spielgeraet
100
AcDbLine
 10
11818.64355081164
 20
-1276.93035424866
 30
0.0
 11
11818.64355081164
 21
-1276.948771895829
 31
0.0
  0
ARC
  5
86CD5
330
86969
100
AcDbEntity
  8
ESF_Spielgeraet
100
AcDbCircle
 10
11818.63355081164
 20
-1276.93035424866
 30
0.0
 40
0.01
100
AcDbArc
 50
0.0
 51
90.0
  0
ARC
  5
86CD6
330
86969
100
AcDbEntity
  8
ESF_Spielgeraet
100
AcDbCircle
 10
11818.63355081164
 20
-1276.948771895829
 30
0.0
 40
0.01
100
AcDbArc
 50
270.0
 51
0.0
  0
LINE
  5
86CD7
330
86969
100
AcDbEntity
  8
ESF_Spielgeraet
100
AcDbLine
 10
11818.56700438396
 20
-1276.93035424866
 30
0.0
 11
11818.56700438396
 21
-1276.948771895829
 31
0.0
  0
ARC
  5
86CD8
330
86969
100
AcDbEntity
  8
ESF_Spielgeraet
100
AcDbCircle
 10
11818.57700438396
 20
-1276.93035424866
 30
0.0
 40
0.01
100
AcDbArc
 50
90.0
 51
180.0
  0
ARC
  5
86CD9
330
86969
100
AcDbEntity
  8
ESF_Spielgeraet
100
AcDbCircle
 10
11818.57700438396
 20
-1276.948771895829
 30
0.0
 40
0.01
100
AcDbArc
 50
180.0
 51
270.0
  0
LINE
  5
86CDA
330
86969
100
AcDbEntity
  8
ESF_Spielgeraet
100
AcDbLine
 10
11818.56700438396
 20
-1276.948771895829
 30
0.0
 11
11818.56700438396
 21
-1277.0722667487
 31
0.0
  0
LINE
  5
86CDB
330
86969
100
AcDbEntity
  8
ESF_Spielgeraet
100
AcDbLine
 10
11818.64355081164
 20
-1276.948771895829
 30
0.0
 11
11818.64355081164
 21
-1277.0722667487
 31
0.0
  0
LINE
  5
86CDC
330
86969
100
AcDbEntity
  8
ESF_Spielgeraet
100
AcDbLine
 10
11818.66200438396
 20
-1277.0822667487
 30
0.0
 11
11818.71855081164
 21
-1277.0822667487
 31
0.0
  0
ARC
  5
86CDD
330
86969
100
AcDbEntity
  8
ESF_Spielgeraet
100
AcDbCircle
 10
11818.71855081164
 20
-1277.0722667487
 30
0.0
 40
0.01
100
AcDbArc
 50
270.0
 51
0.0
  0
ARC
  5
86CDE
330
86969
100
AcDbEntity
  8
ESF_Spielgeraet
100
AcDbCircle
 10
11818.66200438396
 20
-1277.0722667487
 30
0.0
 40
0.01
100
AcDbArc
 50
180.0
 51
270.0
  0
LINE
  5
86CDF
330
86969
100
AcDbEntity
  8
ESF_Spielgeraet
100
AcDbLine
 10
11818.71855081164
 20
-1276.92035424866
 30
0.0
 11
11818.66200438396
 21
-1276.92035424866
 31
0.0
  0
LINE
  5
86CE0
330
86969
100
AcDbEntity
  8
ESF_Spielgeraet
100
AcDbLine
 10
11818.71855081164
 20
-1276.958771895829
 30
0.0
 11
11818.66200438396
 21
-1276.958771895829
 31
0.0
  0
LINE
  5
86CE1
330
86969
100
AcDbEntity
  8
ESF_Spielgeraet
100
AcDbLine
 10
11818.72855081164
 20
-1276.93035424866
 30
0.0
 11
11818.72855081164
 21
-1276.948771895829
 31
0.0
  0
ARC
  5
86CE2
330
86969
100
AcDbEntity
  8
ESF_Spielgeraet
100
AcDbCircle
 10
11818.71855081164
 20
-1276.93035424866
 30
0.0
 40
0.01
100
AcDbArc
 50
0.0
 51
90.0
  0
ARC
  5
86CE3
330
86969
100
AcDbEntity
  8
ESF_Spielgeraet
100
AcDbCircle
 10
11818.71855081164
 20
-1276.948771895829
 30
0.0
 40
0.01
100
AcDbArc
 50
270.0
 51
0.0
  0
LINE
  5
86CE4
330
86969
100
AcDbEntity
  8
ESF_Spielgeraet
100
AcDbLine
 10
11818.65200438396
 20
-1276.93035424866
 30
0.0
 11
11818.65200438396
 21
-1276.948771895829
 31
0.0
  0
ARC
  5
86CE5
330
86969
100
AcDbEntity
  8
ESF_Spielgeraet
100
AcDbCircle
 10
11818.66200438396
 20
-1276.93035424866
 30
0.0
 40
0.01
100
AcDbArc
 50
90.0
 51
180.0
  0
ARC
  5
86CE6
330
86969
100
AcDbEntity
  8
ESF_Spielgeraet
100
AcDbCircle
 10
11818.66200438396
 20
-1276.948771895829
 30
0.0
 40
0.01
100
AcDbArc
 50
180.0
 51
270.0
  0
LINE
  5
86CE7
330
86969
100
AcDbEntity
  8
ESF_Spielgeraet
100
AcDbLine
 10
11818.65200438396
 20
-1276.948771895829
 30
0.0
 11
11818.65200438396
 21
-1277.0722667487
 31
0.0
  0
LINE
  5
86CE8
330
86969
100
AcDbEntity
  8
ESF_Spielgeraet
100
AcDbLine
 10
11818.72855081164
 20
-1276.948771895829
 30
0.0
 11
11818.72855081164
 21
-1277.0722667487
 31
0.0
  0
LINE
  5
86CE9
330
86969
100
AcDbEntity
  8
ESF_Spielgeraet
100
AcDbLine
 10
11818.74700438396
 20
-1277.0822667487
 30
0.0
 11
11818.80355081164
 21
-1277.0822667487
 31
0.0
  0
ARC
  5
86CEA
330
86969
100
AcDbEntity
  8
ESF_Spielgeraet
100
AcDbCircle
 10
11818.80355081164
 20
-1277.0722667487
 30
0.0
 40
0.01
100
AcDbArc
 50
270.0
 51
0.0
  0
ARC
  5
86CEB
330
86969
100
AcDbEntity
  8
ESF_Spielgeraet
100
AcDbCircle
 10
11818.74700438396
 20
-1277.0722667487
 30
0.0
 40
0.01
100
AcDbArc
 50
180.0
 51
270.0
  0
LINE
  5
86CEC
330
86969
100
AcDbEntity
  8
ESF_Spielgeraet
100
AcDbLine
 10
11818.80355081164
 20
-1276.92035424866
 30
0.0
 11
11818.74700438396
 21
-1276.92035424866
 31
0.0
  0
LINE
  5
86CED
330
86969
100
AcDbEntity
  8
ESF_Spielgeraet
100
AcDbLine
 10
11818.80355081164
 20
-1276.958771895829
 30
0.0
 11
11818.74700438396
 21
-1276.958771895829
 31
0.0
  0
LINE
  5
86CEE
330
86969
100
AcDbEntity
  8
ESF_Spielgeraet
100
AcDbLine
 10
11818.81355081164
 20
-1276.93035424866
 30
0.0
 11
11818.81355081164
 21
-1276.948771895829
 31
0.0
  0
ARC
  5
86CEF
330
86969
100
AcDbEntity
  8
ESF_Spielgeraet
100
AcDbCircle
 10
11818.80355081164
 20
-1276.93035424866
 30
0.0
 40
0.01
100
AcDbArc
 50
0.0
 51
90.0
  0
ARC
  5
86CF0
330
86969
100
AcDbEntity
  8
ESF_Spielgeraet
100
AcDbCircle
 10
11818.80355081164
 20
-1276.948771895829
 30
0.0
 40
0.01
100
AcDbArc
 50
270.0
 51
0.0
  0
LINE
  5
86CF1
330
86969
100
AcDbEntity
  8
ESF_Spielgeraet
100
AcDbLine
 10
11818.73700438396
 20
-1276.93035424866
 30
0.0
 11
11818.73700438396
 21
-1276.948771895829
 31
0.0
  0
ARC
  5
86CF2
330
86969
100
AcDbEntity
  8
ESF_Spielgeraet
100
AcDbCircle
 10
11818.74700438396
 20
-1276.93035424866
 30
0.0
 40
0.01
100
AcDbArc
 50
90.0
 51
180.0
  0
ARC
  5
86CF3
330
86969
100
AcDbEntity
  8
ESF_Spielgeraet
100
AcDbCircle
 10
11818.74700438396
 20
-1276.948771895829
 30
0.0
 40
0.01
100
AcDbArc
 50
180.0
 51
270.0
  0
LINE
  5
86CF4
330
86969
100
AcDbEntity
  8
ESF_Spielgeraet
100
AcDbLine
 10
11818.73700438396
 20
-1276.948771895829
 30
0.0
 11
11818.73700438396
 21
-1277.0722667487
 31
0.0
  0
LINE
  5
86CF5
330
86969
100
AcDbEntity
  8
ESF_Spielgeraet
100
AcDbLine
 10
11818.81355081164
 20
-1276.948771895829
 30
0.0
 11
11818.81355081164
 21
-1277.0722667487
 31
0.0
  0
LINE
  5
86CF6
330
86969
100
AcDbEntity
  8
ESF_Spielgeraet
100
AcDbLine
 10
11818.06700438396
 20
-1277.0822667487
 30
0.0
 11
11818.12355081164
 21
-1277.0822667487
 31
0.0
  0
ARC
  5
86CF7
330
86969
100
AcDbEntity
  8
ESF_Spielgeraet
100
AcDbCircle
 10
11818.12355081164
 20
-1277.0722667487
 30
0.0
 40
0.01
100
AcDbArc
 50
270.0
 51
0.0
  0
ARC
  5
86CF8
330
86969
100
AcDbEntity
  8
ESF_Spielgeraet
100
AcDbCircle
 10
11818.06700438396
 20
-1277.0722667487
 30
0.0
 40
0.01
100
AcDbArc
 50
180.0
 51
270.0
  0
LINE
  5
86CF9
330
86969
100
AcDbEntity
  8
ESF_Spielgeraet
100
AcDbLine
 10
11818.12355081164
 20
-1276.92035424866
 30
0.0
 11
11818.06700438396
 21
-1276.92035424866
 31
0.0
  0
LINE
  5
86CFA
330
86969
100
AcDbEntity
  8
ESF_Spielgeraet
100
AcDbLine
 10
11818.12355081164
 20
-1276.958771895829
 30
0.0
 11
11818.06700438396
 21
-1276.958771895829
 31
0.0
  0
LINE
  5
86CFB
330
86969
100
AcDbEntity
  8
ESF_Spielgeraet
100
AcDbLine
 10
11818.13355081164
 20
-1276.93035424866
 30
0.0
 11
11818.13355081164
 21
-1276.948771895829
 31
0.0
  0
ARC
  5
86CFC
330
86969
100
AcDbEntity
  8
ESF_Spielgeraet
100
AcDbCircle
 10
11818.12355081164
 20
-1276.93035424866
 30
0.0
 40
0.01
100
AcDbArc
 50
0.0
 51
90.0
  0
ARC
  5
86CFD
330
86969
100
AcDbEntity
  8
ESF_Spielgeraet
100
AcDbCircle
 10
11818.12355081164
 20
-1276.948771895829
 30
0.0
 40
0.01
100
AcDbArc
 50
270.0
 51
0.0
  0
LINE
  5
86CFE
330
86969
100
AcDbEntity
  8
ESF_Spielgeraet
100
AcDbLine
 10
11818.05700438396
 20
-1276.93035424866
 30
0.0
 11
11818.05700438396
 21
-1276.948771895829
 31
0.0
  0
ARC
  5
86CFF
330
86969
100
AcDbEntity
  8
ESF_Spielgeraet
100
AcDbCircle
 10
11818.06700438396
 20
-1276.93035424866
 30
0.0
 40
0.01
100
AcDbArc
 50
90.0
 51
180.0
  0
ARC
  5
86D00
330
86969
100
AcDbEntity
  8
ESF_Spielgeraet
100
AcDbCircle
 10
11818.06700438396
 20
-1276.948771895829
 30
0.0
 40
0.01
100
AcDbArc
 50
180.0
 51
270.0
  0
LINE
  5
86D01
330
86969
100
AcDbEntity
  8
ESF_Spielgeraet
100
AcDbLine
 10
11818.05700438396
 20
-1276.948771895829
 30
0.0
 11
11818.05700438396
 21
-1277.0722667487
 31
0.0
  0
LINE
  5
86D02
330
86969
100
AcDbEntity
  8
ESF_Spielgeraet
100
AcDbLine
 10
11818.13355081164
 20
-1276.948771895829
 30
0.0
 11
11818.13355081164
 21
-1277.0722667487
 31
0.0
  0
LINE
  5
86D03
330
86969
100
AcDbEntity
  8
ESF_Spielgeraet
100
AcDbLine
 10
11818.15200438396
 20
-1277.0822667487
 30
0.0
 11
11818.20855081164
 21
-1277.0822667487
 31
0.0
  0
ARC
  5
86D04
330
86969
100
AcDbEntity
  8
ESF_Spielgeraet
100
AcDbCircle
 10
11818.20855081164
 20
-1277.0722667487
 30
0.0
 40
0.01
100
AcDbArc
 50
270.0
 51
0.0
  0
ARC
  5
86D05
330
86969
100
AcDbEntity
  8
ESF_Spielgeraet
100
AcDbCircle
 10
11818.15200438396
 20
-1277.0722667487
 30
0.0
 40
0.01
100
AcDbArc
 50
180.0
 51
270.0
  0
LINE
  5
86D06
330
86969
100
AcDbEntity
  8
ESF_Spielgeraet
100
AcDbLine
 10
11818.20855081164
 20
-1276.92035424866
 30
0.0
 11
11818.15200438396
 21
-1276.92035424866
 31
0.0
  0
LINE
  5
86D07
330
86969
100
AcDbEntity
  8
ESF_Spielgeraet
100
AcDbLine
 10
11818.20855081164
 20
-1276.958771895829
 30
0.0
 11
11818.15200438396
 21
-1276.958771895829
 31
0.0
  0
LINE
  5
86D08
330
86969
100
AcDbEntity
  8
ESF_Spielgeraet
100
AcDbLine
 10
11818.21855081164
 20
-1276.93035424866
 30
0.0
 11
11818.21855081164
 21
-1276.948771895829
 31
0.0
  0
ARC
  5
86D09
330
86969
100
AcDbEntity
  8
ESF_Spielgeraet
100
AcDbCircle
 10
11818.20855081164
 20
-1276.93035424866
 30
0.0
 40
0.01
100
AcDbArc
 50
0.0
 51
90.0
  0
ARC
  5
86D0A
330
86969
100
AcDbEntity
  8
ESF_Spielgeraet
100
AcDbCircle
 10
11818.20855081164
 20
-1276.948771895829
 30
0.0
 40
0.01
100
AcDbArc
 50
270.0
 51
0.0
  0
LINE
  5
86D0B
330
86969
100
AcDbEntity
  8
ESF_Spielgeraet
100
AcDbLine
 10
11818.14200438396
 20
-1276.93035424866
 30
0.0
 11
11818.14200438396
 21
-1276.948771895829
 31
0.0
  0
ARC
  5
86D0C
330
86969
100
AcDbEntity
  8
ESF_Spielgeraet
100
AcDbCircle
 10
11818.15200438396
 20
-1276.93035424866
 30
0.0
 40
0.01
100
AcDbArc
 50
90.0
 51
180.0
  0
ARC
  5
86D0D
330
86969
100
AcDbEntity
  8
ESF_Spielgeraet
100
AcDbCircle
 10
11818.15200438396
 20
-1276.948771895829
 30
0.0
 40
0.01
100
AcDbArc
 50
180.0
 51
270.0
  0
LINE
  5
86D0E
330
86969
100
AcDbEntity
  8
ESF_Spielgeraet
100
AcDbLine
 10
11818.14200438396
 20
-1276.948771895829
 30
0.0
 11
11818.14200438396
 21
-1277.0722667487
 31
0.0
  0
LINE
  5
86D0F
330
86969
100
AcDbEntity
  8
ESF_Spielgeraet
100
AcDbLine
 10
11818.21855081164
 20
-1276.948771895829
 30
0.0
 11
11818.21855081164
 21
-1277.0722667487
 31
0.0
  0
LINE
  5
86D10
330
86969
100
AcDbEntity
  8
ESF_Spielgeraet
100
AcDbLine
 10
11818.23700438396
 20
-1277.0822667487
 30
0.0
 11
11818.29355081164
 21
-1277.0822667487
 31
0.0
  0
ARC
  5
86D11
330
86969
100
AcDbEntity
  8
ESF_Spielgeraet
100
AcDbCircle
 10
11818.29355081164
 20
-1277.0722667487
 30
0.0
 40
0.01
100
AcDbArc
 50
270.0
 51
0.0
  0
ARC
  5
86D12
330
86969
100
AcDbEntity
  8
ESF_Spielgeraet
100
AcDbCircle
 10
11818.23700438396
 20
-1277.0722667487
 30
0.0
 40
0.01
100
AcDbArc
 50
180.0
 51
270.0
  0
LINE
  5
86D13
330
86969
100
AcDbEntity
  8
ESF_Spielgeraet
100
AcDbLine
 10
11818.29355081164
 20
-1276.92035424866
 30
0.0
 11
11818.23700438396
 21
-1276.92035424866
 31
0.0
  0
LINE
  5
86D14
330
86969
100
AcDbEntity
  8
ESF_Spielgeraet
100
AcDbLine
 10
11818.29355081164
 20
-1276.958771895829
 30
0.0
 11
11818.23700438396
 21
-1276.958771895829
 31
0.0
  0
LINE
  5
86D15
330
86969
100
AcDbEntity
  8
ESF_Spielgeraet
100
AcDbLine
 10
11818.30355081164
 20
-1276.93035424866
 30
0.0
 11
11818.30355081164
 21
-1276.948771895829
 31
0.0
  0
ARC
  5
86D16
330
86969
100
AcDbEntity
  8
ESF_Spielgeraet
100
AcDbCircle
 10
11818.29355081164
 20
-1276.93035424866
 30
0.0
 40
0.01
100
AcDbArc
 50
0.0
 51
90.0
  0
ARC
  5
86D17
330
86969
100
AcDbEntity
  8
ESF_Spielgeraet
100
AcDbCircle
 10
11818.29355081164
 20
-1276.948771895829
 30
0.0
 40
0.01
100
AcDbArc
 50
270.0
 51
0.0
  0
LINE
  5
86D18
330
86969
100
AcDbEntity
  8
ESF_Spielgeraet
100
AcDbLine
 10
11818.22700438396
 20
-1276.93035424866
 30
0.0
 11
11818.22700438396
 21
-1276.948771895829
 31
0.0
  0
ARC
  5
86D19
330
86969
100
AcDbEntity
  8
ESF_Spielgeraet
100
AcDbCircle
 10
11818.23700438396
 20
-1276.93035424866
 30
0.0
 40
0.01
100
AcDbArc
 50
90.0
 51
180.0
  0
ARC
  5
86D1A
330
86969
100
AcDbEntity
  8
ESF_Spielgeraet
100
AcDbCircle
 10
11818.23700438396
 20
-1276.948771895829
 30
0.0
 40
0.01
100
AcDbArc
 50
180.0
 51
270.0
  0
LINE
  5
86D1B
330
86969
100
AcDbEntity
  8
ESF_Spielgeraet
100
AcDbLine
 10
11818.22700438396
 20
-1276.948771895829
 30
0.0
 11
11818.22700438396
 21
-1277.0722667487
 31
0.0
  0
LINE
  5
86D1C
330
86969
100
AcDbEntity
  8
ESF_Spielgeraet
100
AcDbLine
 10
11818.30355081164
 20
-1276.948771895829
 30
0.0
 11
11818.30355081164
 21
-1277.0722667487
 31
0.0
  0
LINE
  5
86D1D
330
86969
100
AcDbEntity
  8
ESF_Spielgeraet
100
AcDbLine
 10
11818.32200438396
 20
-1277.0822667487
 30
0.0
 11
11818.37855081164
 21
-1277.0822667487
 31
0.0
  0
ARC
  5
86D1E
330
86969
100
AcDbEntity
  8
ESF_Spielgeraet
100
AcDbCircle
 10
11818.37855081164
 20
-1277.0722667487
 30
0.0
 40
0.01
100
AcDbArc
 50
270.0
 51
0.0
  0
ARC
  5
86D1F
330
86969
100
AcDbEntity
  8
ESF_Spielgeraet
100
AcDbCircle
 10
11818.32200438396
 20
-1277.0722667487
 30
0.0
 40
0.01
100
AcDbArc
 50
180.0
 51
270.0
  0
LINE
  5
86D20
330
86969
100
AcDbEntity
  8
ESF_Spielgeraet
100
AcDbLine
 10
11818.37855081164
 20
-1276.92035424866
 30
0.0
 11
11818.32200438396
 21
-1276.92035424866
 31
0.0
  0
LINE
  5
86D21
330
86969
100
AcDbEntity
  8
ESF_Spielgeraet
100
AcDbLine
 10
11818.37855081164
 20
-1276.958771895829
 30
0.0
 11
11818.32200438396
 21
-1276.958771895829
 31
0.0
  0
LINE
  5
86D22
330
86969
100
AcDbEntity
  8
ESF_Spielgeraet
100
AcDbLine
 10
11818.38855081164
 20
-1276.93035424866
 30
0.0
 11
11818.38855081164
 21
-1276.948771895829
 31
0.0
  0
ARC
  5
86D23
330
86969
100
AcDbEntity
  8
ESF_Spielgeraet
100
AcDbCircle
 10
11818.37855081164
 20
-1276.93035424866
 30
0.0
 40
0.01
100
AcDbArc
 50
0.0
 51
90.0
  0
ARC
  5
86D24
330
86969
100
AcDbEntity
  8
ESF_Spielgeraet
100
AcDbCircle
 10
11818.37855081164
 20
-1276.948771895829
 30
0.0
 40
0.01
100
AcDbArc
 50
270.0
 51
0.0
  0
LINE
  5
86D25
330
86969
100
AcDbEntity
  8
ESF_Spielgeraet
100
AcDbLine
 10
11818.31200438396
 20
-1276.93035424866
 30
0.0
 11
11818.31200438396
 21
-1276.948771895829
 31
0.0
  0
ARC
  5
86D26
330
86969
100
AcDbEntity
  8
ESF_Spielgeraet
100
AcDbCircle
 10
11818.32200438396
 20
-1276.93035424866
 30
0.0
 40
0.01
100
AcDbArc
 50
90.0
 51
180.0
  0
ARC
  5
86D27
330
86969
100
AcDbEntity
  8
ESF_Spielgeraet
100
AcDbCircle
 10
11818.32200438396
 20
-1276.948771895829
 30
0.0
 40
0.01
100
AcDbArc
 50
180.0
 51
270.0
  0
LINE
  5
86D28
330
86969
100
AcDbEntity
  8
ESF_Spielgeraet
100
AcDbLine
 10
11818.31200438396
 20
-1276.948771895829
 30
0.0
 11
11818.31200438396
 21
-1277.0722667487
 31
0.0
  0
LINE
  5
86D29
330
86969
100
AcDbEntity
  8
ESF_Spielgeraet
100
AcDbLine
 10
11818.38855081164
 20
-1276.948771895829
 30
0.0
 11
11818.38855081164
 21
-1277.0722667487
 31
0.0
  0
LINE
  5
86D2A
330
86969
100
AcDbEntity
  8
ESF_Spielgeraet
100
AcDbLine
 10
11819.69101438521
 20
-1277.4786467487
 30
0.0
 11
11819.66351311918
 21
-1277.451145482675
 31
0.0
  0
LINE
  5
86D2B
330
86969
100
AcDbEntity
  8
ESF_Spielgeraet
100
AcDbLine
 10
11818.02601185316
 20
-1277.4786467487
 30
0.0
 11
11818.05351311918
 21
-1277.451145482675
 31
0.0
  0
ARC
  5
86D2C
330
86969
100
AcDbEntity
  8
ESF_Spielgeraet
100
AcDbCircle
 10
11818.00973576945
 20
-1277.265719714693
 30
0.0
 40
0.02
100
AcDbArc
 50
35.51822258716639
 51
154.6312641723615
  0
ARC
  5
86D2D
330
86969
100
AcDbEntity
  8
ESF_Spielgeraet
100
AcDbCircle
 10
11818.00973576945
 20
-1277.265719714693
 30
0.0
 40
0.02
100
AcDbArc
 50
205.3687358276384
 51
324.4817774128336
  0
LINE
  5
86D2E
330
86969
100
AcDbEntity
  8
ESF_Spielgeraet
100
AcDbLine
 10
11817.99908576945
 20
-1277.237813187483
 30
0.0
 11
11817.99908576945
 21
-1277.204103851128
 31
0.0
  0
LINE
  5
86D2F
330
86969
100
AcDbEntity
  8
ESF_Spielgeraet
100
AcDbLine
 10
11818.02038576945
 20
-1277.237813187483
 30
0.0
 11
11818.02038576945
 21
-1277.204103851128
 31
0.0
  0
ELLIPSE
  5
86D30
330
86969
100
AcDbEntity
  8
ESF_Spielgeraet
100
AcDbEllipse
 10
11818.00973576945
 20
-1277.237813187483
 30
0.0
 11
0.0106500000000015
 21
0.0000000000000002
 31
0.0
210
0.0
220
0.0
230
1.0
 40
0.6922983244898705
 41
4.120246681837822
 42
6.283185307179563
  0
ELLIPSE
  5
86D31
330
86969
100
AcDbEntity
  8
ESF_Spielgeraet
100
AcDbEllipse
 10
11818.00973576945
 20
-1277.237813187483
 30
0.0
 11
0.0106500000000001
 21
0.0
 31
0.0
210
0.0
220
0.0
230
1.0
 40
0.6922983244901425
 41
9.424777960769379
 42
10.40343198901728
  0
LINE
  5
86D32
330
86969
100
AcDbEntity
  8
ESF_Spielgeraet
100
AcDbLine
 10
11818.00379157986
 20
-1277.243930892288
 30
0.0
 11
11818.00379157986
 21
-1277.246623468724
 31
0.0
  0
LINE
  5
86D33
330
86969
100
AcDbEntity
  8
ESF_Spielgeraet
100
AcDbLine
 10
11818.0160131134
 20
-1277.2437692651
 30
0.0
 11
11818.0160131134
 21
-1277.246730376817
 31
0.0
  0
LINE
  5
86D34
330
86969
100
AcDbEntity
  8
ESF_Spielgeraet
100
AcDbLine
 10
11818.01640480818
 20
-1277.203868369341
 30
0.0
 11
11818.01609766436
 21
-1277.179825691922
 31
0.0
  0
LINE
  5
86D35
330
86969
100
AcDbEntity
  8
ESF_Spielgeraet
100
AcDbLine
 10
11818.00307267674
 20
-1277.203989760326
 30
0.0
 11
11818.00337548641
 21
-1277.179825691922
 31
0.0
  0
LINE
  5
86D36
330
86969
100
AcDbEntity
  8
ESF_Spielgeraet
100
AcDbLine
 10
11817.94366438521
 20
-1277.494731263665
 30
0.0
 11
11817.94366438521
 21
-1277.072638462904
 31
0.0
  0
LINE
  5
86D37
330
86969
100
AcDbEntity
  8
ESF_Spielgeraet
100
AcDbLine
 10
11817.99166438521
 20
-1277.494731263665
 30
0.0
 11
11817.99166438521
 21
-1277.072638462904
 31
0.0
  0
LINE
  5
86D38
330
86969
100
AcDbEntity
  8
ESF_Spielgeraet
100
AcDbLine
 10
11817.95136270714
 20
-1277.491326778313
 30
0.0
 11
11817.95076418817
 21
-1277.491222664812
 31
0.0
  0
CIRCLE
  5
86D39
330
86969
100
AcDbEntity
  8
ESF_Spielgeraet
100
AcDbCircle
 10
11817.96766438521
 20
-1277.538594688064
 30
0.0
 40
0.05
  0
ARC
  5
86D3A
330
86969
100
AcDbEntity
  8
ESF_Spielgeraet
100
AcDbCircle
 10
11817.97492526514
 20
-1277.639422091579
 30
0.0
 40
1.55
100
AcDbArc
 50
171.909778879414
 51
270.0
  0
ARC
  5
86D3B
330
86969
100
AcDbEntity
  8
ESF_Spielgeraet
100
AcDbCircle
 10
11817.96766438521
 20
-1277.072638462904
 30
0.0
 40
0.024
100
AcDbArc
 50
0.0
 51
180.0
  0
LINE
  5
86D3C
330
86969
100
AcDbEntity
  8
ESF_Spielgeraet
100
AcDbLine
 10
11817.99166438521
 20
-1277.323858495851
 30
0.0
 11
11817.99166438521
 21
-1277.368858495851
 31
0.0
  0
LINE
  5
86D3D
330
86969
100
AcDbEntity
  8
ESF_Spielgeraet
100
AcDbLine
 10
11817.99166438521
 20
-1277.368858495851
 30
0.0
 11
11818.02601438521
 21
-1277.368858495851
 31
0.0
  0
LINE
  5
86D3E
330
86969
100
AcDbEntity
  8
ESF_Spielgeraet
100
AcDbLine
 10
11818.02601438521
 20
-1277.323858495851
 30
0.0
 11
11817.99166438521
 21
-1277.323858495851
 31
0.0
  0
ELLIPSE
  5
86D3F
330
86969
100
AcDbEntity
  8
ESF_Spielgeraet
100
AcDbEllipse
 10
11818.00973576945
 20
-1277.204103851128
 30
0.0
 11
-0.0106500000000692
 21
0.0000000000000686
 31
0.0
210
0.0
220
0.0
230
1.0
 40
0.6922983244857374
 41
1.570796326799011
 42
4.044231145611435
  0
ELLIPSE
  5
86D40
330
86969
100
AcDbEntity
  8
ESF_Spielgeraet
100
AcDbEllipse
 10
11818.00973576945
 20
-1277.204103851128
 30
0.0
 11
-0.0106500000000692
 21
0.0000000000000686
 31
0.0
210
0.0
220
0.0
230
1.0
 40
0.6922983244857374
 41
5.379810511257648
 42
7.261839335436359
  0
ELLIPSE
  5
86D41
330
86969
100
AcDbEntity
  8
ESF_Spielgeraet
100
AcDbEllipse
 10
11818.00973576945
 20
-1277.204103851128
 30
0.0
 11
0.0066690387210688
 21
0.0002354817860922
 31
0.0
210
0.0
220
0.0
230
0.9999999999999998
 40
0.7073887989625382
 41
3.587799862634494
 42
6.283185307179586
  0
ELLIPSE
  5
86D42
330
86969
100
AcDbEntity
  8
ESF_Spielgeraet
100
AcDbEllipse
 10
11818.00973576945
 20
-1277.204103851128
 30
0.0
 11
0.0066690387210688
 21
0.0002354817860922
 31
0.0
210
0.0
220
0.0
230
0.9999999999999998
 40
0.7073887989625382
 41
9.350747462298238
 42
9.374903799912063
  0
LINE
  5
86D43
330
86969
100
AcDbEntity
  8
ESF_Spielgeraet
100
AcDbLine
 10
11818.02601438521
 20
-1277.179825691922
 30
0.0
 11
11817.99166438521
 21
-1277.179825691922
 31
0.0
  0
LINE
  5
86D44
330
86969
100
AcDbEntity
  8
ESF_Spielgeraet
100
AcDbLine
 10
11818.02601438521
 20
-1277.126825691922
 30
0.0
 11
11817.99166438521
 21
-1277.126825691922
 31
0.0
  0
LINE
  5
86D45
330
86969
100
AcDbEntity
  8
ESF_Spielgeraet
100
AcDbLine
 10
11817.99166438521
 20
-1277.148556900758
 30
0.0
 11
11818.02601438521
 21
-1277.148556900758
 31
0.0
  0
LINE
  5
86D46
330
86969
100
AcDbEntity
  8
ESF_Spielgeraet
100
AcDbLine
 10
11819.72536438521
 20
-1277.495558667181
 30
0.0
 11
11819.72536438521
 21
-1277.073465866419
 31
0.0
  0
LINE
  5
86D47
330
86969
100
AcDbEntity
  8
ESF_Spielgeraet
100
AcDbLine
 10
11819.77336438521
 20
-1277.495558667181
 30
0.0
 11
11819.77336438521
 21
-1277.073465866419
 31
0.0
  0
ARC
  5
86D48
330
86969
100
AcDbEntity
  8
ESF_Spielgeraet
100
AcDbCircle
 10
11819.74936438521
 20
-1277.539422091579
 30
0.0
 40
0.05
100
AcDbArc
 50
118.6854020437306
 51
61.31459795626941
  0
ARC
  5
86D49
330
86969
100
AcDbEntity
  8
ESF_Spielgeraet
100
AcDbCircle
 10
11819.75662526514
 20
-1277.640249495094
 30
0.0
 40
1.55
100
AcDbArc
 50
268.1278105563296
 51
8.468770450654975
  0
ARC
  5
86D4A
330
86969
100
AcDbEntity
  8
ESF_Spielgeraet
100
AcDbCircle
 10
11819.74936438521
 20
-1277.073465866419
 30
0.0
 40
0.024
100
AcDbArc
 50
0.0
 51
180.0
  0
LINE
  5
86D4B
330
86969
100
AcDbEntity
  8
ESF_Spielgeraet
100
AcDbLine
 10
11819.69101438521
 20
-1277.368858495851
 30
0.0
 11
11819.72536438521
 21
-1277.368858495851
 31
0.0
  0
LINE
  5
86D4C
330
86969
100
AcDbEntity
  8
ESF_Spielgeraet
100
AcDbLine
 10
11819.72536438521
 20
-1277.323858495851
 30
0.0
 11
11819.69101438521
 21
-1277.323858495851
 31
0.0
  0
LINE
  5
86D4D
330
86969
100
AcDbEntity
  8
ESF_Spielgeraet
100
AcDbLine
 10
11819.72536438521
 20
-1277.179825691922
 30
0.0
 11
11819.69101438521
 21
-1277.179825691922
 31
0.0
  0
LINE
  5
86D4E
330
86969
100
AcDbEntity
  8
ESF_Spielgeraet
100
AcDbLine
 10
11819.69101438521
 20
-1277.135361071665
 30
0.0
 11
11819.72536438521
 21
-1277.135361071665
 31
0.0
  0
LINE
  5
86D4F
330
86969
100
AcDbEntity
  8
ESF_Spielgeraet
100
AcDbLine
 10
11819.13201438521
 20
-1277.495558602385
 30
0.0
 11
11819.13201438521
 21
-1277.073465801624
 31
0.0
  0
LINE
  5
86D50
330
86969
100
AcDbEntity
  8
ESF_Spielgeraet
100
AcDbLine
 10
11819.18001438521
 20
-1277.495558602385
 30
0.0
 11
11819.18001438521
 21
-1277.073465801624
 31
0.0
  0
ARC
  5
86D51
330
86969
100
AcDbEntity
  8
ESF_Spielgeraet
100
AcDbCircle
 10
11819.15601438521
 20
-1277.073465801624
 30
0.0
 40
0.024
100
AcDbArc
 50
0.0
 51
180.0
  0
ARC
  5
86D52
330
86969
100
AcDbEntity
  8
ESF_Spielgeraet
100
AcDbCircle
 10
11819.15601438521
 20
-1277.483111498869
 30
0.0
 40
0.0270357242541614
100
AcDbArc
 50
207.4125781856721
 51
332.5874218143279
  0
ARC
  5
86D53
330
86969
100
AcDbEntity
  8
ESF_Spielgeraet
100
AcDbCircle
 10
11819.74936438521
 20
-1277.465043416789
 30
0.0
 40
0.0388224227275058
100
AcDbArc
 50
231.8152330824831
 51
308.1847669175169
  0
LINE
  5
86D54
330
86969
100
AcDbEntity
  8
ESF_Spielgeraet
100
AcDbLine
 10
11819.58351438521
 20
-1277.40978280973
 30
0.0
 11
11819.57851438521
 21
-1277.40978280973
 31
0.0
  0
LINE
  5
86D55
330
86969
100
AcDbEntity
  8
ESF_Spielgeraet
100
AcDbLine
 10
11819.49851438521
 20
-1277.40978280973
 30
0.0
 11
11819.49351438521
 21
-1277.40978280973
 31
0.0
  0
LINE
  5
86D56
330
86969
100
AcDbEntity
  8
ESF_Spielgeraet
100
AcDbLine
 10
11819.41351438521
 20
-1277.40978280973
 30
0.0
 11
11819.40851438521
 21
-1277.40978280973
 31
0.0
  0
LINE
  5
86D57
330
86969
100
AcDbEntity
  8
ESF_Spielgeraet
100
AcDbLine
 10
11819.32851438521
 20
-1277.40978280973
 30
0.0
 11
11819.32351438521
 21
-1277.40978280973
 31
0.0
  0
LINE
  5
86D58
330
86969
100
AcDbEntity
  8
ESF_Spielgeraet
100
AcDbLine
 10
11819.24351438521
 20
-1277.40978280973
 30
0.0
 11
11819.23851438521
 21
-1277.40978280973
 31
0.0
  0
LINE
  5
86D59
330
86969
100
AcDbEntity
  8
ESF_Spielgeraet
100
AcDbLine
 10
11819.07351438521
 20
-1277.40978280973
 30
0.0
 11
11819.06851438521
 21
-1277.40978280973
 31
0.0
  0
LINE
  5
86D5A
330
86969
100
AcDbEntity
  8
ESF_Spielgeraet
100
AcDbLine
 10
11818.98851438521
 20
-1277.40978280973
 30
0.0
 11
11818.98351438521
 21
-1277.40978280973
 31
0.0
  0
LINE
  5
86D5B
330
86969
100
AcDbEntity
  8
ESF_Spielgeraet
100
AcDbLine
 10
11818.90351438521
 20
-1277.40978280973
 30
0.0
 11
11818.89851438521
 21
-1277.40978280973
 31
0.0
  0
LINE
  5
86D5C
330
86969
100
AcDbEntity
  8
ESF_Spielgeraet
100
AcDbLine
 10
11818.81851438521
 20
-1277.40978280973
 30
0.0
 11
11818.81351438521
 21
-1277.40978280973
 31
0.0
  0
LINE
  5
86D5D
330
86969
100
AcDbEntity
  8
ESF_Spielgeraet
100
AcDbLine
 10
11818.73351438521
 20
-1277.40978280973
 30
0.0
 11
11818.72851438521
 21
-1277.40978280973
 31
0.0
  0
LINE
  5
86D5E
330
86969
100
AcDbEntity
  8
ESF_Spielgeraet
100
AcDbLine
 10
11818.64851438521
 20
-1277.40978280973
 30
0.0
 11
11818.64351438521
 21
-1277.40978280973
 31
0.0
  0
LINE
  5
86D5F
330
86969
100
AcDbEntity
  8
ESF_Spielgeraet
100
AcDbLine
 10
11818.56351438521
 20
-1277.40978280973
 30
0.0
 11
11818.55851438521
 21
-1277.40978280973
 31
0.0
  0
LINE
  5
86D60
330
86969
100
AcDbEntity
  8
ESF_Spielgeraet
100
AcDbLine
 10
11818.47851438521
 20
-1277.40978280973
 30
0.0
 11
11818.47351438521
 21
-1277.40978280973
 31
0.0
  0
LINE
  5
86D61
330
86969
100
AcDbEntity
  8
ESF_Spielgeraet
100
AcDbLine
 10
11818.39351438521
 20
-1277.40978280973
 30
0.0
 11
11818.38851438521
 21
-1277.40978280973
 31
0.0
  0
LINE
  5
86D62
330
86969
100
AcDbEntity
  8
ESF_Spielgeraet
100
AcDbLine
 10
11818.30851438521
 20
-1277.40978280973
 30
0.0
 11
11818.30351438521
 21
-1277.40978280973
 31
0.0
  0
LINE
  5
86D63
330
86969
100
AcDbEntity
  8
ESF_Spielgeraet
100
AcDbLine
 10
11818.22351438521
 20
-1277.40978280973
 30
0.0
 11
11818.21851438521
 21
-1277.40978280973
 31
0.0
  0
LINE
  5
86D64
330
86969
100
AcDbEntity
  8
ESF_Spielgeraet
100
AcDbLine
 10
11818.13851438521
 20
-1277.40978280973
 30
0.0
 11
11818.1335137522
 21
-1277.40978280973
 31
0.0
  0
LINE
  5
86D65
330
86969
100
AcDbEntity
  8
ESF_Spielgeraet
100
AcDbLine
 10
11819.58351438521
 20
-1277.439782809731
 30
0.0
 11
11819.57851438521
 21
-1277.439782809731
 31
0.0
  0
LINE
  5
86D66
330
86969
100
AcDbEntity
  8
ESF_Spielgeraet
100
AcDbLine
 10
11819.49851438521
 20
-1277.439782809731
 30
0.0
 11
11819.49351438521
 21
-1277.439782809731
 31
0.0
  0
LINE
  5
86D67
330
86969
100
AcDbEntity
  8
ESF_Spielgeraet
100
AcDbLine
 10
11819.41351438521
 20
-1277.439782809731
 30
0.0
 11
11819.40851438521
 21
-1277.439782809731
 31
0.0
  0
LINE
  5
86D68
330
86969
100
AcDbEntity
  8
ESF_Spielgeraet
100
AcDbLine
 10
11819.32851438521
 20
-1277.439782809731
 30
0.0
 11
11819.32351438521
 21
-1277.439782809731
 31
0.0
  0
LINE
  5
86D69
330
86969
100
AcDbEntity
  8
ESF_Spielgeraet
100
AcDbLine
 10
11819.24351438521
 20
-1277.439782809731
 30
0.0
 11
11819.23851438521
 21
-1277.439782809731
 31
0.0
  0
LINE
  5
86D6A
330
86969
100
AcDbEntity
  8
ESF_Spielgeraet
100
AcDbLine
 10
11819.07351438521
 20
-1277.439782809731
 30
0.0
 11
11819.06851438521
 21
-1277.439782809731
 31
0.0
  0
LINE
  5
86D6B
330
86969
100
AcDbEntity
  8
ESF_Spielgeraet
100
AcDbLine
 10
11818.98851438521
 20
-1277.439782809731
 30
0.0
 11
11818.98351438521
 21
-1277.439782809731
 31
0.0
  0
LINE
  5
86D6C
330
86969
100
AcDbEntity
  8
ESF_Spielgeraet
100
AcDbLine
 10
11818.90351438521
 20
-1277.439782809731
 30
0.0
 11
11818.89851438521
 21
-1277.439782809731
 31
0.0
  0
LINE
  5
86D6D
330
86969
100
AcDbEntity
  8
ESF_Spielgeraet
100
AcDbLine
 10
11818.81851438521
 20
-1277.439782809731
 30
0.0
 11
11818.81351438521
 21
-1277.439782809731
 31
0.0
  0
LINE
  5
86D6E
330
86969
100
AcDbEntity
  8
ESF_Spielgeraet
100
AcDbLine
 10
11818.73351438521
 20
-1277.439782809731
 30
0.0
 11
11818.72851438521
 21
-1277.439782809731
 31
0.0
  0
LINE
  5
86D6F
330
86969
100
AcDbEntity
  8
ESF_Spielgeraet
100
AcDbLine
 10
11818.64851438521
 20
-1277.439782809731
 30
0.0
 11
11818.64351438521
 21
-1277.439782809731
 31
0.0
  0
LINE
  5
86D70
330
86969
100
AcDbEntity
  8
ESF_Spielgeraet
100
AcDbLine
 10
11818.56351438521
 20
-1277.439782809731
 30
0.0
 11
11818.55851438521
 21
-1277.439782809731
 31
0.0
  0
LINE
  5
86D71
330
86969
100
AcDbEntity
  8
ESF_Spielgeraet
100
AcDbLine
 10
11818.47851438521
 20
-1277.439782809731
 30
0.0
 11
11818.47351438521
 21
-1277.439782809731
 31
0.0
  0
LINE
  5
86D72
330
86969
100
AcDbEntity
  8
ESF_Spielgeraet
100
AcDbLine
 10
11818.39351438521
 20
-1277.439782809731
 30
0.0
 11
11818.38851438521
 21
-1277.439782809731
 31
0.0
  0
LINE
  5
86D73
330
86969
100
AcDbEntity
  8
ESF_Spielgeraet
100
AcDbLine
 10
11818.30851438521
 20
-1277.439782809731
 30
0.0
 11
11818.30351438521
 21
-1277.439782809731
 31
0.0
  0
LINE
  5
86D74
330
86969
100
AcDbEntity
  8
ESF_Spielgeraet
100
AcDbLine
 10
11818.22351438521
 20
-1277.439782809731
 30
0.0
 11
11818.21851438521
 21
-1277.439782809731
 31
0.0
  0
LINE
  5
86D75
330
86969
100
AcDbEntity
  8
ESF_Spielgeraet
100
AcDbLine
 10
11818.13851438521
 20
-1277.439782809731
 30
0.0
 11
11818.1335137522
 21
-1277.439782809731
 31
0.0
  0
LINE
  5
86D76
330
86969
100
AcDbEntity
  8
ESF_Spielgeraet
100
AcDbLine
 10
11819.58351438521
 20
-1277.19978280973
 30
0.0
 11
11819.57851438521
 21
-1277.19978280973
 31
0.0
  0
LINE
  5
86D77
330
86969
100
AcDbEntity
  8
ESF_Spielgeraet
100
AcDbLine
 10
11819.49851438521
 20
-1277.19978280973
 30
0.0
 11
11819.49351438521
 21
-1277.19978280973
 31
0.0
  0
LINE
  5
86D78
330
86969
100
AcDbEntity
  8
ESF_Spielgeraet
100
AcDbLine
 10
11819.41351438521
 20
-1277.19978280973
 30
0.0
 11
11819.40851438521
 21
-1277.19978280973
 31
0.0
  0
LINE
  5
86D79
330
86969
100
AcDbEntity
  8
ESF_Spielgeraet
100
AcDbLine
 10
11819.32851438521
 20
-1277.19978280973
 30
0.0
 11
11819.32351438521
 21
-1277.19978280973
 31
0.0
  0
LINE
  5
86D7A
330
86969
100
AcDbEntity
  8
ESF_Spielgeraet
100
AcDbLine
 10
11819.24351438521
 20
-1277.19978280973
 30
0.0
 11
11819.23851438521
 21
-1277.19978280973
 31
0.0
  0
LINE
  5
86D7B
330
86969
100
AcDbEntity
  8
ESF_Spielgeraet
100
AcDbLine
 10
11819.07351438521
 20
-1277.19978280973
 30
0.0
 11
11819.06851438521
 21
-1277.19978280973
 31
0.0
  0
LINE
  5
86D7C
330
86969
100
AcDbEntity
  8
ESF_Spielgeraet
100
AcDbLine
 10
11818.98851438521
 20
-1277.19978280973
 30
0.0
 11
11818.98351438521
 21
-1277.19978280973
 31
0.0
  0
LINE
  5
86D7D
330
86969
100
AcDbEntity
  8
ESF_Spielgeraet
100
AcDbLine
 10
11818.90351438521
 20
-1277.19978280973
 30
0.0
 11
11818.89851438521
 21
-1277.19978280973
 31
0.0
  0
LINE
  5
86D7E
330
86969
100
AcDbEntity
  8
ESF_Spielgeraet
100
AcDbLine
 10
11818.81851438521
 20
-1277.19978280973
 30
0.0
 11
11818.81351438521
 21
-1277.19978280973
 31
0.0
  0
LINE
  5
86D7F
330
86969
100
AcDbEntity
  8
ESF_Spielgeraet
100
AcDbLine
 10
11818.73351438521
 20
-1277.19978280973
 30
0.0
 11
11818.72851438521
 21
-1277.19978280973
 31
0.0
  0
LINE
  5
86D80
330
86969
100
AcDbEntity
  8
ESF_Spielgeraet
100
AcDbLine
 10
11818.64851438521
 20
-1277.19978280973
 30
0.0
 11
11818.64351438521
 21
-1277.19978280973
 31
0.0
  0
LINE
  5
86D81
330
86969
100
AcDbEntity
  8
ESF_Spielgeraet
100
AcDbLine
 10
11818.56351438521
 20
-1277.19978280973
 30
0.0
 11
11818.55851438521
 21
-1277.19978280973
 31
0.0
  0
LINE
  5
86D82
330
86969
100
AcDbEntity
  8
ESF_Spielgeraet
100
AcDbLine
 10
11818.47851438521
 20
-1277.19978280973
 30
0.0
 11
11818.47351438521
 21
-1277.19978280973
 31
0.0
  0
LINE
  5
86D83
330
86969
100
AcDbEntity
  8
ESF_Spielgeraet
100
AcDbLine
 10
11818.39351438521
 20
-1277.19978280973
 30
0.0
 11
11818.38851438521
 21
-1277.19978280973
 31
0.0
  0
LINE
  5
86D84
330
86969
100
AcDbEntity
  8
ESF_Spielgeraet
100
AcDbLine
 10
11818.30851438521
 20
-1277.19978280973
 30
0.0
 11
11818.30351438521
 21
-1277.19978280973
 31
0.0
  0
LINE
  5
86D85
330
86969
100
AcDbEntity
  8
ESF_Spielgeraet
100
AcDbLine
 10
11818.22351438521
 20
-1277.19978280973
 30
0.0
 11
11818.21851438521
 21
-1277.19978280973
 31
0.0
  0
LINE
  5
86D86
330
86969
100
AcDbEntity
  8
ESF_Spielgeraet
100
AcDbLine
 10
11818.13851438521
 20
-1277.19978280973
 30
0.0
 11
11818.1335137522
 21
-1277.19978280973
 31
0.0
  0
LINE
  5
86D87
330
86969
100
AcDbEntity
  8
ESF_Spielgeraet
100
AcDbLine
 10
11819.58351438521
 20
-1277.16478280973
 30
0.0
 11
11819.57851438521
 21
-1277.16478280973
 31
0.0
  0
LINE
  5
86D88
330
86969
100
AcDbEntity
  8
ESF_Spielgeraet
100
AcDbLine
 10
11819.49851438521
 20
-1277.16478280973
 30
0.0
 11
11819.49351438521
 21
-1277.16478280973
 31
0.0
  0
LINE
  5
86D89
330
86969
100
AcDbEntity
  8
ESF_Spielgeraet
100
AcDbLine
 10
11819.41351438521
 20
-1277.16478280973
 30
0.0
 11
11819.40851438521
 21
-1277.16478280973
 31
0.0
  0
LINE
  5
86D8A
330
86969
100
AcDbEntity
  8
ESF_Spielgeraet
100
AcDbLine
 10
11819.32851438521
 20
-1277.16478280973
 30
0.0
 11
11819.32351438521
 21
-1277.16478280973
 31
0.0
  0
LINE
  5
86D8B
330
86969
100
AcDbEntity
  8
ESF_Spielgeraet
100
AcDbLine
 10
11819.24351438521
 20
-1277.16478280973
 30
0.0
 11
11819.23851438521
 21
-1277.16478280973
 31
0.0
  0
LINE
  5
86D8C
330
86969
100
AcDbEntity
  8
ESF_Spielgeraet
100
AcDbLine
 10
11819.07351438521
 20
-1277.16478280973
 30
0.0
 11
11819.06851438521
 21
-1277.16478280973
 31
0.0
  0
LINE
  5
86D8D
330
86969
100
AcDbEntity
  8
ESF_Spielgeraet
100
AcDbLine
 10
11818.98851438521
 20
-1277.16478280973
 30
0.0
 11
11818.98351438521
 21
-1277.16478280973
 31
0.0
  0
LINE
  5
86D8E
330
86969
100
AcDbEntity
  8
ESF_Spielgeraet
100
AcDbLine
 10
11818.90351438521
 20
-1277.16478280973
 30
0.0
 11
11818.89851438521
 21
-1277.16478280973
 31
0.0
  0
LINE
  5
86D8F
330
86969
100
AcDbEntity
  8
ESF_Spielgeraet
100
AcDbLine
 10
11818.81851438521
 20
-1277.16478280973
 30
0.0
 11
11818.81351438521
 21
-1277.16478280973
 31
0.0
  0
LINE
  5
86D90
330
86969
100
AcDbEntity
  8
ESF_Spielgeraet
100
AcDbLine
 10
11818.73351438521
 20
-1277.16478280973
 30
0.0
 11
11818.72851438521
 21
-1277.16478280973
 31
0.0
  0
LINE
  5
86D91
330
86969
100
AcDbEntity
  8
ESF_Spielgeraet
100
AcDbLine
 10
11818.64851438521
 20
-1277.16478280973
 30
0.0
 11
11818.64351438521
 21
-1277.16478280973
 31
0.0
  0
LINE
  5
86D92
330
86969
100
AcDbEntity
  8
ESF_Spielgeraet
100
AcDbLine
 10
11818.56351438521
 20
-1277.16478280973
 30
0.0
 11
11818.55851438521
 21
-1277.16478280973
 31
0.0
  0
LINE
  5
86D93
330
86969
100
AcDbEntity
  8
ESF_Spielgeraet
100
AcDbLine
 10
11818.47851438521
 20
-1277.16478280973
 30
0.0
 11
11818.47351438521
 21
-1277.16478280973
 31
0.0
  0
LINE
  5
86D94
330
86969
100
AcDbEntity
  8
ESF_Spielgeraet
100
AcDbLine
 10
11818.39351438521
 20
-1277.16478280973
 30
0.0
 11
11818.38851438521
 21
-1277.16478280973
 31
0.0
  0
LINE
  5
86D95
330
86969
100
AcDbEntity
  8
ESF_Spielgeraet
100
AcDbLine
 10
11818.30851438521
 20
-1277.16478280973
 30
0.0
 11
11818.30351438521
 21
-1277.16478280973
 31
0.0
  0
LINE
  5
86D96
330
86969
100
AcDbEntity
  8
ESF_Spielgeraet
100
AcDbLine
 10
11818.22351438521
 20
-1277.16478280973
 30
0.0
 11
11818.21851438521
 21
-1277.16478280973
 31
0.0
  0
LINE
  5
86D97
330
86969
100
AcDbEntity
  8
ESF_Spielgeraet
100
AcDbLine
 10
11818.13851438521
 20
-1277.16478280973
 30
0.0
 11
11818.1335137522
 21
-1277.16478280973
 31
0.0
  0
LINE
  5
86D98
330
86969
100
AcDbEntity
  8
ESF_Spielgeraet
100
AcDbLine
 10
11819.58351438521
 20
-1276.94706038907
 30
0.0
 11
11819.57506081289
 21
-1276.94706038907
 31
0.0
  0
LINE
  5
86D99
330
86969
100
AcDbEntity
  8
ESF_Spielgeraet
100
AcDbLine
 10
11819.49851438521
 20
-1276.94706038907
 30
0.0
 11
11819.49006081289
 21
-1276.94706038907
 31
0.0
  0
LINE
  5
86D9A
330
86969
100
AcDbEntity
  8
ESF_Spielgeraet
100
AcDbLine
 10
11819.41351438521
 20
-1276.94706038907
 30
0.0
 11
11819.40506081289
 21
-1276.94706038907
 31
0.0
  0
LINE
  5
86D9B
330
86969
100
AcDbEntity
  8
ESF_Spielgeraet
100
AcDbLine
 10
11819.32851438521
 20
-1276.94706038907
 30
0.0
 11
11819.32265443801
 21
-1276.94706038907
 31
0.0
  0
LINE
  5
86D9C
330
86969
100
AcDbEntity
  8
ESF_Spielgeraet
100
AcDbLine
 10
11819.24610801033
 20
-1276.94706038907
 30
0.0
 11
11819.23562187945
 21
-1276.94706038907
 31
0.0
  0
LINE
  5
86D9D
330
86969
100
AcDbEntity
  8
ESF_Spielgeraet
100
AcDbLine
 10
11819.15907545177
 20
-1276.94706038907
 30
0.0
 11
11819.15062187945
 21
-1276.94706038907
 31
0.0
  0
LINE
  5
86D9E
330
86969
100
AcDbEntity
  8
ESF_Spielgeraet
100
AcDbLine
 10
11819.07407545177
 20
-1276.94706038907
 30
0.0
 11
11819.06562187945
 21
-1276.94706038907
 31
0.0
  0
LINE
  5
86D9F
330
86969
100
AcDbEntity
  8
ESF_Spielgeraet
100
AcDbLine
 10
11818.98907545177
 20
-1276.94706038907
 30
0.0
 11
11818.98062187945
 21
-1276.94706038907
 31
0.0
  0
LINE
  5
86DA0
330
86969
100
AcDbEntity
  8
ESF_Spielgeraet
100
AcDbLine
 10
11818.90407545177
 20
-1276.94706038907
 30
0.0
 11
11818.89821550457
 21
-1276.94706038907
 31
0.0
  0
LINE
  5
86DA1
330
86969
100
AcDbEntity
  8
ESF_Spielgeraet
100
AcDbLine
 10
11818.82166907689
 20
-1276.94706038907
 30
0.0
 11
11818.81355081164
 21
-1276.94706038907
 31
0.0
  0
LINE
  5
86DA2
330
86969
100
AcDbEntity
  8
ESF_Spielgeraet
100
AcDbLine
 10
11818.73700438396
 20
-1276.94706038907
 30
0.0
 11
11818.72855081164
 21
-1276.94706038907
 31
0.0
  0
LINE
  5
86DA3
330
86969
100
AcDbEntity
  8
ESF_Spielgeraet
100
AcDbLine
 10
11818.65200438396
 20
-1276.94706038907
 30
0.0
 11
11818.64355081164
 21
-1276.94706038907
 31
0.0
  0
LINE
  5
86DA4
330
86969
100
AcDbEntity
  8
ESF_Spielgeraet
100
AcDbLine
 10
11818.56700438396
 20
-1276.94706038907
 30
0.0
 11
11818.55855081164
 21
-1276.94706038907
 31
0.0
  0
LINE
  5
86DA5
330
86969
100
AcDbEntity
  8
ESF_Spielgeraet
100
AcDbLine
 10
11818.48200438396
 20
-1276.94706038907
 30
0.0
 11
11818.47614443676
 21
-1276.94706038907
 31
0.0
  0
LINE
  5
86DA6
330
86969
100
AcDbEntity
  8
ESF_Spielgeraet
100
AcDbLine
 10
11818.39959800908
 20
-1276.94706038907
 30
0.0
 11
11818.38855081164
 21
-1276.94706038907
 31
0.0
  0
LINE
  5
86DA7
330
86969
100
AcDbEntity
  8
ESF_Spielgeraet
100
AcDbLine
 10
11818.31200438396
 20
-1276.94706038907
 30
0.0
 11
11818.30355081164
 21
-1276.94706038907
 31
0.0
  0
LINE
  5
86DA8
330
86969
100
AcDbEntity
  8
ESF_Spielgeraet
100
AcDbLine
 10
11818.22700438396
 20
-1276.94706038907
 30
0.0
 11
11818.21855081164
 21
-1276.94706038907
 31
0.0
  0
LINE
  5
86DA9
330
86969
100
AcDbEntity
  8
ESF_Spielgeraet
100
AcDbLine
 10
11818.14200438396
 20
-1276.94706038907
 30
0.0
 11
11818.13355081164
 21
-1276.94706038907
 31
0.0
  0
LINE
  5
86DAA
330
86969
100
AcDbEntity
  8
ESF_Spielgeraet
100
AcDbLine
 10
11819.58351438521
 20
-1276.939802732202
 30
0.0
 11
11819.57506081289
 21
-1276.939802732202
 31
0.0
  0
LINE
  5
86DAB
330
86969
100
AcDbEntity
  8
ESF_Spielgeraet
100
AcDbLine
 10
11819.49851438521
 20
-1276.939802732202
 30
0.0
 11
11819.49006081289
 21
-1276.939802732202
 31
0.0
  0
LINE
  5
86DAC
330
86969
100
AcDbEntity
  8
ESF_Spielgeraet
100
AcDbLine
 10
11819.41351438521
 20
-1276.939802732202
 30
0.0
 11
11819.40506081289
 21
-1276.939802732202
 31
0.0
  0
LINE
  5
86DAD
330
86969
100
AcDbEntity
  8
ESF_Spielgeraet
100
AcDbLine
 10
11819.32851438521
 20
-1276.939802732202
 30
0.0
 11
11819.32265443801
 21
-1276.939802732202
 31
0.0
  0
LINE
  5
86DAE
330
86969
100
AcDbEntity
  8
ESF_Spielgeraet
100
AcDbLine
 10
11819.24610801033
 20
-1276.939802732202
 30
0.0
 11
11819.23562187945
 21
-1276.939802732202
 31
0.0
  0
LINE
  5
86DAF
330
86969
100
AcDbEntity
  8
ESF_Spielgeraet
100
AcDbLine
 10
11819.15907545177
 20
-1276.939802732202
 30
0.0
 11
11819.15062187945
 21
-1276.939802732202
 31
0.0
  0
LINE
  5
86DB0
330
86969
100
AcDbEntity
  8
ESF_Spielgeraet
100
AcDbLine
 10
11819.07407545177
 20
-1276.939802732202
 30
0.0
 11
11819.06562187945
 21
-1276.939802732202
 31
0.0
  0
LINE
  5
86DB1
330
86969
100
AcDbEntity
  8
ESF_Spielgeraet
100
AcDbLine
 10
11818.98907545177
 20
-1276.939802732202
 30
0.0
 11
11818.98062187945
 21
-1276.939802732202
 31
0.0
  0
LINE
  5
86DB2
330
86969
100
AcDbEntity
  8
ESF_Spielgeraet
100
AcDbLine
 10
11818.90407545177
 20
-1276.939802732202
 30
0.0
 11
11818.89821550457
 21
-1276.939802732202
 31
0.0
  0
LINE
  5
86DB3
330
86969
100
AcDbEntity
  8
ESF_Spielgeraet
100
AcDbLine
 10
11818.82166907689
 20
-1276.939802732202
 30
0.0
 11
11818.81355081164
 21
-1276.939802732202
 31
0.0
  0
LINE
  5
86DB4
330
86969
100
AcDbEntity
  8
ESF_Spielgeraet
100
AcDbLine
 10
11818.73700438396
 20
-1276.939802732202
 30
0.0
 11
11818.72855081164
 21
-1276.939802732202
 31
0.0
  0
LINE
  5
86DB5
330
86969
100
AcDbEntity
  8
ESF_Spielgeraet
100
AcDbLine
 10
11818.65200438396
 20
-1276.939802732202
 30
0.0
 11
11818.64355081164
 21
-1276.939802732202
 31
0.0
  0
LINE
  5
86DB6
330
86969
100
AcDbEntity
  8
ESF_Spielgeraet
100
AcDbLine
 10
11818.56700438396
 20
-1276.939802732202
 30
0.0
 11
11818.55855081164
 21
-1276.939802732202
 31
0.0
  0
LINE
  5
86DB7
330
86969
100
AcDbEntity
  8
ESF_Spielgeraet
100
AcDbLine
 10
11818.48200438396
 20
-1276.939802732202
 30
0.0
 11
11818.47614443676
 21
-1276.939802732202
 31
0.0
  0
LINE
  5
86DB8
330
86969
100
AcDbEntity
  8
ESF_Spielgeraet
100
AcDbLine
 10
11818.39959800908
 20
-1276.939802732202
 30
0.0
 11
11818.38855081164
 21
-1276.939802732202
 31
0.0
  0
LINE
  5
86DB9
330
86969
100
AcDbEntity
  8
ESF_Spielgeraet
100
AcDbLine
 10
11818.31200438396
 20
-1276.939802732202
 30
0.0
 11
11818.30355081164
 21
-1276.939802732202
 31
0.0
  0
LINE
  5
86DBA
330
86969
100
AcDbEntity
  8
ESF_Spielgeraet
100
AcDbLine
 10
11818.22700438396
 20
-1276.939802732202
 30
0.0
 11
11818.21855081164
 21
-1276.939802732202
 31
0.0
  0
LINE
  5
86DBB
330
86969
100
AcDbEntity
  8
ESF_Spielgeraet
100
AcDbLine
 10
11818.14200438396
 20
-1276.939802732202
 30
0.0
 11
11818.13355081164
 21
-1276.939802732202
 31
0.0
  0
LINE
  5
86DBC
330
86969
100
AcDbEntity
  8
ESF_Spielgeraet
100
AcDbLine
 10
11819.58351438521
 20
-1276.934951253571
 30
0.0
 11
11819.57506081289
 21
-1276.934951253571
 31
0.0
  0
LINE
  5
86DBD
330
86969
100
AcDbEntity
  8
ESF_Spielgeraet
100
AcDbLine
 10
11819.49851438521
 20
-1276.934951253571
 30
0.0
 11
11819.49006081289
 21
-1276.934951253571
 31
0.0
  0
LINE
  5
86DBE
330
86969
100
AcDbEntity
  8
ESF_Spielgeraet
100
AcDbLine
 10
11819.41351438521
 20
-1276.934951253571
 30
0.0
 11
11819.40506081289
 21
-1276.934951253571
 31
0.0
  0
LINE
  5
86DBF
330
86969
100
AcDbEntity
  8
ESF_Spielgeraet
100
AcDbLine
 10
11819.32851438521
 20
-1276.934951253571
 30
0.0
 11
11819.32265443801
 21
-1276.934951253571
 31
0.0
  0
LINE
  5
86DC0
330
86969
100
AcDbEntity
  8
ESF_Spielgeraet
100
AcDbLine
 10
11819.24610801033
 20
-1276.934951253571
 30
0.0
 11
11819.23562187945
 21
-1276.934951253571
 31
0.0
  0
LINE
  5
86DC1
330
86969
100
AcDbEntity
  8
ESF_Spielgeraet
100
AcDbLine
 10
11819.15907545177
 20
-1276.934951253571
 30
0.0
 11
11819.15062187945
 21
-1276.934951253571
 31
0.0
  0
LINE
  5
86DC2
330
86969
100
AcDbEntity
  8
ESF_Spielgeraet
100
AcDbLine
 10
11819.07407545177
 20
-1276.934951253571
 30
0.0
 11
11819.06562187945
 21
-1276.934951253571
 31
0.0
  0
LINE
  5
86DC3
330
86969
100
AcDbEntity
  8
ESF_Spielgeraet
100
AcDbLine
 10
11818.98907545177
 20
-1276.934951253571
 30
0.0
 11
11818.98062187945
 21
-1276.934951253571
 31
0.0
  0
LINE
  5
86DC4
330
86969
100
AcDbEntity
  8
ESF_Spielgeraet
100
AcDbLine
 10
11818.90407545177
 20
-1276.934951253571
 30
0.0
 11
11818.89821550457
 21
-1276.934951253571
 31
0.0
  0
LINE
  5
86DC5
330
86969
100
AcDbEntity
  8
ESF_Spielgeraet
100
AcDbLine
 10
11818.82166907689
 20
-1276.934951253571
 30
0.0
 11
11818.81355081164
 21
-1276.934951253571
 31
0.0
  0
LINE
  5
86DC6
330
86969
100
AcDbEntity
  8
ESF_Spielgeraet
100
AcDbLine
 10
11818.73700438396
 20
-1276.934951253571
 30
0.0
 11
11818.72855081164
 21
-1276.934951253571
 31
0.0
  0
LINE
  5
86DC7
330
86969
100
AcDbEntity
  8
ESF_Spielgeraet
100
AcDbLine
 10
11818.65200438396
 20
-1276.934951253571
 30
0.0
 11
11818.64355081164
 21
-1276.934951253571
 31
0.0
  0
LINE
  5
86DC8
330
86969
100
AcDbEntity
  8
ESF_Spielgeraet
100
AcDbLine
 10
11818.56700438396
 20
-1276.934951253571
 30
0.0
 11
11818.55855081164
 21
-1276.934951253571
 31
0.0
  0
LINE
  5
86DC9
330
86969
100
AcDbEntity
  8
ESF_Spielgeraet
100
AcDbLine
 10
11818.48200438396
 20
-1276.934951253571
 30
0.0
 11
11818.47614443676
 21
-1276.934951253571
 31
0.0
  0
LINE
  5
86DCA
330
86969
100
AcDbEntity
  8
ESF_Spielgeraet
100
AcDbLine
 10
11818.39959800908
 20
-1276.934951253571
 30
0.0
 11
11818.38855081164
 21
-1276.934951253571
 31
0.0
  0
LINE
  5
86DCB
330
86969
100
AcDbEntity
  8
ESF_Spielgeraet
100
AcDbLine
 10
11818.31200438396
 20
-1276.934951253571
 30
0.0
 11
11818.30355081164
 21
-1276.934951253571
 31
0.0
  0
LINE
  5
86DCC
330
86969
100
AcDbEntity
  8
ESF_Spielgeraet
100
AcDbLine
 10
11818.22700438396
 20
-1276.934951253571
 30
0.0
 11
11818.21855081164
 21
-1276.934951253571
 31
0.0
  0
LINE
  5
86DCD
330
86969
100
AcDbEntity
  8
ESF_Spielgeraet
100
AcDbLine
 10
11818.14200438396
 20
-1276.934951253571
 30
0.0
 11
11818.13355081164
 21
-1276.934951253571
 31
0.0
  0
LINE
  5
86DCE
330
86969
100
AcDbEntity
  8
ESF_Spielgeraet
100
AcDbLine
 10
11819.58351438521
 20
-1276.989999552182
 30
0.0
 11
11819.57506081289
 21
-1276.989999552182
 31
0.0
  0
LINE
  5
86DCF
330
86969
100
AcDbEntity
  8
ESF_Spielgeraet
100
AcDbLine
 10
11819.49851438521
 20
-1276.989999552182
 30
0.0
 11
11819.49006081289
 21
-1276.989999552182
 31
0.0
  0
LINE
  5
86DD0
330
86969
100
AcDbEntity
  8
ESF_Spielgeraet
100
AcDbLine
 10
11819.41351438521
 20
-1276.989999552182
 30
0.0
 11
11819.40506081289
 21
-1276.989999552182
 31
0.0
  0
LINE
  5
86DD1
330
86969
100
AcDbEntity
  8
ESF_Spielgeraet
100
AcDbLine
 10
11819.32851438521
 20
-1276.989999552182
 30
0.0
 11
11819.32265443801
 21
-1276.989999552182
 31
0.0
  0
LINE
  5
86DD2
330
86969
100
AcDbEntity
  8
ESF_Spielgeraet
100
AcDbLine
 10
11819.24610801033
 20
-1276.989999552182
 30
0.0
 11
11819.23562187945
 21
-1276.989999552182
 31
0.0
  0
LINE
  5
86DD3
330
86969
100
AcDbEntity
  8
ESF_Spielgeraet
100
AcDbLine
 10
11819.15907545177
 20
-1276.989999552182
 30
0.0
 11
11819.15062187945
 21
-1276.989999552182
 31
0.0
  0
LINE
  5
86DD4
330
86969
100
AcDbEntity
  8
ESF_Spielgeraet
100
AcDbLine
 10
11819.07407545177
 20
-1276.989999552182
 30
0.0
 11
11819.06562187945
 21
-1276.989999552182
 31
0.0
  0
LINE
  5
86DD5
330
86969
100
AcDbEntity
  8
ESF_Spielgeraet
100
AcDbLine
 10
11818.98907545177
 20
-1276.989999552182
 30
0.0
 11
11818.98062187945
 21
-1276.989999552182
 31
0.0
  0
LINE
  5
86DD6
330
86969
100
AcDbEntity
  8
ESF_Spielgeraet
100
AcDbLine
 10
11818.90407545177
 20
-1276.989999552182
 30
0.0
 11
11818.89821550457
 21
-1276.989999552182
 31
0.0
  0
LINE
  5
86DD7
330
86969
100
AcDbEntity
  8
ESF_Spielgeraet
100
AcDbLine
 10
11818.82166907689
 20
-1276.989999552182
 30
0.0
 11
11818.81355081164
 21
-1276.989999552182
 31
0.0
  0
LINE
  5
86DD8
330
86969
100
AcDbEntity
  8
ESF_Spielgeraet
100
AcDbLine
 10
11818.73700438396
 20
-1276.989999552182
 30
0.0
 11
11818.72855081164
 21
-1276.989999552182
 31
0.0
  0
LINE
  5
86DD9
330
86969
100
AcDbEntity
  8
ESF_Spielgeraet
100
AcDbLine
 10
11818.65200438396
 20
-1276.989999552182
 30
0.0
 11
11818.64355081164
 21
-1276.989999552182
 31
0.0
  0
LINE
  5
86DDA
330
86969
100
AcDbEntity
  8
ESF_Spielgeraet
100
AcDbLine
 10
11818.56700438396
 20
-1276.989999552182
 30
0.0
 11
11818.55855081164
 21
-1276.989999552182
 31
0.0
  0
LINE
  5
86DDB
330
86969
100
AcDbEntity
  8
ESF_Spielgeraet
100
AcDbLine
 10
11818.48200438396
 20
-1276.989999552182
 30
0.0
 11
11818.47614443676
 21
-1276.989999552182
 31
0.0
  0
LINE
  5
86DDC
330
86969
100
AcDbEntity
  8
ESF_Spielgeraet
100
AcDbLine
 10
11818.39959800908
 20
-1276.989999552182
 30
0.0
 11
11818.38855081164
 21
-1276.989999552182
 31
0.0
  0
LINE
  5
86DDD
330
86969
100
AcDbEntity
  8
ESF_Spielgeraet
100
AcDbLine
 10
11818.31200438396
 20
-1276.989999552182
 30
0.0
 11
11818.30355081164
 21
-1276.989999552182
 31
0.0
  0
LINE
  5
86DDE
330
86969
100
AcDbEntity
  8
ESF_Spielgeraet
100
AcDbLine
 10
11818.22700438396
 20
-1276.989999552182
 30
0.0
 11
11818.21855081164
 21
-1276.989999552182
 31
0.0
  0
LINE
  5
86DDF
330
86969
100
AcDbEntity
  8
ESF_Spielgeraet
100
AcDbLine
 10
11818.14200438396
 20
-1276.989999552182
 30
0.0
 11
11818.13355081164
 21
-1276.989999552182
 31
0.0
  0
LINE
  5
86DE0
330
86969
100
AcDbEntity
  8
ESF_Spielgeraet
100
AcDbLine
 10
11819.58351438521
 20
-1276.982237186371
 30
0.0
 11
11819.57506081289
 21
-1276.982237186371
 31
0.0
  0
LINE
  5
86DE1
330
86969
100
AcDbEntity
  8
ESF_Spielgeraet
100
AcDbLine
 10
11819.49851438521
 20
-1276.982237186371
 30
0.0
 11
11819.49006081289
 21
-1276.982237186371
 31
0.0
  0
LINE
  5
86DE2
330
86969
100
AcDbEntity
  8
ESF_Spielgeraet
100
AcDbLine
 10
11819.41351438521
 20
-1276.982237186371
 30
0.0
 11
11819.40506081289
 21
-1276.982237186371
 31
0.0
  0
LINE
  5
86DE3
330
86969
100
AcDbEntity
  8
ESF_Spielgeraet
100
AcDbLine
 10
11819.32851438521
 20
-1276.982237186371
 30
0.0
 11
11819.32265443801
 21
-1276.982237186371
 31
0.0
  0
LINE
  5
86DE4
330
86969
100
AcDbEntity
  8
ESF_Spielgeraet
100
AcDbLine
 10
11819.24610801033
 20
-1276.982237186371
 30
0.0
 11
11819.23562187945
 21
-1276.982237186371
 31
0.0
  0
LINE
  5
86DE5
330
86969
100
AcDbEntity
  8
ESF_Spielgeraet
100
AcDbLine
 10
11819.15907545177
 20
-1276.982237186371
 30
0.0
 11
11819.15062187945
 21
-1276.982237186371
 31
0.0
  0
LINE
  5
86DE6
330
86969
100
AcDbEntity
  8
ESF_Spielgeraet
100
AcDbLine
 10
11819.07407545177
 20
-1276.982237186371
 30
0.0
 11
11819.06562187945
 21
-1276.982237186371
 31
0.0
  0
LINE
  5
86DE7
330
86969
100
AcDbEntity
  8
ESF_Spielgeraet
100
AcDbLine
 10
11818.98907545177
 20
-1276.982237186371
 30
0.0
 11
11818.98062187945
 21
-1276.982237186371
 31
0.0
  0
LINE
  5
86DE8
330
86969
100
AcDbEntity
  8
ESF_Spielgeraet
100
AcDbLine
 10
11818.90407545177
 20
-1276.982237186371
 30
0.0
 11
11818.89821550457
 21
-1276.982237186371
 31
0.0
  0
LINE
  5
86DE9
330
86969
100
AcDbEntity
  8
ESF_Spielgeraet
100
AcDbLine
 10
11818.82166907689
 20
-1276.982237186371
 30
0.0
 11
11818.81355081164
 21
-1276.982237186371
 31
0.0
  0
LINE
  5
86DEA
330
86969
100
AcDbEntity
  8
ESF_Spielgeraet
100
AcDbLine
 10
11818.73700438396
 20
-1276.982237186371
 30
0.0
 11
11818.72855081164
 21
-1276.982237186371
 31
0.0
  0
LINE
  5
86DEB
330
86969
100
AcDbEntity
  8
ESF_Spielgeraet
100
AcDbLine
 10
11818.65200438396
 20
-1276.982237186371
 30
0.0
 11
11818.64355081164
 21
-1276.982237186371
 31
0.0
  0
LINE
  5
86DEC
330
86969
100
AcDbEntity
  8
ESF_Spielgeraet
100
AcDbLine
 10
11818.56700438396
 20
-1276.982237186371
 30
0.0
 11
11818.55855081164
 21
-1276.982237186371
 31
0.0
  0
LINE
  5
86DED
330
86969
100
AcDbEntity
  8
ESF_Spielgeraet
100
AcDbLine
 10
11818.48200438396
 20
-1276.982237186371
 30
0.0
 11
11818.47614443676
 21
-1276.982237186371
 31
0.0
  0
LINE
  5
86DEE
330
86969
100
AcDbEntity
  8
ESF_Spielgeraet
100
AcDbLine
 10
11818.39959800908
 20
-1276.982237186371
 30
0.0
 11
11818.38855081164
 21
-1276.982237186371
 31
0.0
  0
LINE
  5
86DEF
330
86969
100
AcDbEntity
  8
ESF_Spielgeraet
100
AcDbLine
 10
11818.31200438396
 20
-1276.982237186371
 30
0.0
 11
11818.30355081164
 21
-1276.982237186371
 31
0.0
  0
LINE
  5
86DF0
330
86969
100
AcDbEntity
  8
ESF_Spielgeraet
100
AcDbLine
 10
11818.22700438396
 20
-1276.982237186371
 30
0.0
 11
11818.21855081164
 21
-1276.982237186371
 31
0.0
  0
LINE
  5
86DF1
330
86969
100
AcDbEntity
  8
ESF_Spielgeraet
100
AcDbLine
 10
11818.14200438396
 20
-1276.982237186371
 30
0.0
 11
11818.13355081164
 21
-1276.982237186371
 31
0.0
  0
LINE
  5
86DF2
330
86969
100
AcDbEntity
  8
ESF_Spielgeraet
100
AcDbLine
 10
11819.58351438521
 20
-1276.997257209049
 30
0.0
 11
11819.57506081289
 21
-1276.997257209049
 31
0.0
  0
LINE
  5
86DF3
330
86969
100
AcDbEntity
  8
ESF_Spielgeraet
100
AcDbLine
 10
11819.49851438521
 20
-1276.997257209049
 30
0.0
 11
11819.49006081289
 21
-1276.997257209049
 31
0.0
  0
LINE
  5
86DF4
330
86969
100
AcDbEntity
  8
ESF_Spielgeraet
100
AcDbLine
 10
11819.41351438521
 20
-1276.997257209049
 30
0.0
 11
11819.40506081289
 21
-1276.997257209049
 31
0.0
  0
LINE
  5
86DF5
330
86969
100
AcDbEntity
  8
ESF_Spielgeraet
100
AcDbLine
 10
11819.32851438521
 20
-1276.997257209049
 30
0.0
 11
11819.32265443801
 21
-1276.997257209049
 31
0.0
  0
LINE
  5
86DF6
330
86969
100
AcDbEntity
  8
ESF_Spielgeraet
100
AcDbLine
 10
11819.24610801033
 20
-1276.997257209049
 30
0.0
 11
11819.23562187945
 21
-1276.997257209049
 31
0.0
  0
LINE
  5
86DF7
330
86969
100
AcDbEntity
  8
ESF_Spielgeraet
100
AcDbLine
 10
11819.15907545177
 20
-1276.997257209049
 30
0.0
 11
11819.15062187945
 21
-1276.997257209049
 31
0.0
  0
LINE
  5
86DF8
330
86969
100
AcDbEntity
  8
ESF_Spielgeraet
100
AcDbLine
 10
11819.07407545177
 20
-1276.997257209049
 30
0.0
 11
11819.06562187945
 21
-1276.997257209049
 31
0.0
  0
LINE
  5
86DF9
330
86969
100
AcDbEntity
  8
ESF_Spielgeraet
100
AcDbLine
 10
11818.98907545177
 20
-1276.997257209049
 30
0.0
 11
11818.98062187945
 21
-1276.997257209049
 31
0.0
  0
LINE
  5
86DFA
330
86969
100
AcDbEntity
  8
ESF_Spielgeraet
100
AcDbLine
 10
11818.90407545177
 20
-1276.997257209049
 30
0.0
 11
11818.89821550457
 21
-1276.997257209049
 31
0.0
  0
LINE
  5
86DFB
330
86969
100
AcDbEntity
  8
ESF_Spielgeraet
100
AcDbLine
 10
11818.82166907689
 20
-1276.997257209049
 30
0.0
 11
11818.81355081164
 21
-1276.997257209049
 31
0.0
  0
LINE
  5
86DFC
330
86969
100
AcDbEntity
  8
ESF_Spielgeraet
100
AcDbLine
 10
11818.73700438396
 20
-1276.997257209049
 30
0.0
 11
11818.72855081164
 21
-1276.997257209049
 31
0.0
  0
LINE
  5
86DFD
330
86969
100
AcDbEntity
  8
ESF_Spielgeraet
100
AcDbLine
 10
11818.65200438396
 20
-1276.997257209049
 30
0.0
 11
11818.64355081164
 21
-1276.997257209049
 31
0.0
  0
LINE
  5
86DFE
330
86969
100
AcDbEntity
  8
ESF_Spielgeraet
100
AcDbLine
 10
11818.56700438396
 20
-1276.997257209049
 30
0.0
 11
11818.55855081164
 21
-1276.997257209049
 31
0.0
  0
LINE
  5
86DFF
330
86969
100
AcDbEntity
  8
ESF_Spielgeraet
100
AcDbLine
 10
11818.48200438396
 20
-1276.997257209049
 30
0.0
 11
11818.47614443676
 21
-1276.997257209049
 31
0.0
  0
LINE
  5
86E00
330
86969
100
AcDbEntity
  8
ESF_Spielgeraet
100
AcDbLine
 10
11818.39959800908
 20
-1276.997257209049
 30
0.0
 11
11818.38855081164
 21
-1276.997257209049
 31
0.0
  0
LINE
  5
86E01
330
86969
100
AcDbEntity
  8
ESF_Spielgeraet
100
AcDbLine
 10
11818.31200438396
 20
-1276.997257209049
 30
0.0
 11
11818.30355081164
 21
-1276.997257209049
 31
0.0
  0
LINE
  5
86E02
330
86969
100
AcDbEntity
  8
ESF_Spielgeraet
100
AcDbLine
 10
11818.22700438396
 20
-1276.997257209049
 30
0.0
 11
11818.21855081164
 21
-1276.997257209049
 31
0.0
  0
LINE
  5
86E03
330
86969
100
AcDbEntity
  8
ESF_Spielgeraet
100
AcDbLine
 10
11818.14200438396
 20
-1276.997257209049
 30
0.0
 11
11818.13355081164
 21
-1276.997257209049
 31
0.0
  0
LINE
  5
86E04
330
86969
100
AcDbEntity
  8
ESF_Spielgeraet
100
AcDbLine
 10
11819.74936438521
 20
-1279.189422091579
 30
0.0
 11
11817.96040350528
 21
-1279.189422091579
 31
0.0
  0
ARC
  5
86E05
330
86969
100
AcDbEntity
  8
ESF_Spielgeraet
100
AcDbCircle
 10
11819.69101438521
 20
-1276.7892467487
 30
0.0
 40
1.5
100
AcDbArc
 50
15.86463008450817
 51
90.0
  0
ARC
  5
86E06
330
86969
100
AcDbEntity
  8
ESF_Spielgeraet
100
AcDbCircle
 10
11819.69101438521
 20
-1276.7892467487
 30
0.0
 40
1.5
100
AcDbArc
 50
7.759020589865158
 51
90.0
  0
ARC
  5
86E07
330
86969
100
AcDbEntity
  8
ESF_Spielgeraet
100
AcDbCircle
 10
11818.02601438521
 20
-1276.7892467487
 30
0.0
 40
1.5
100
AcDbArc
 50
90.0
 51
173.223013908274
  0
LINE
  5
86E08
330
86969
100
AcDbEntity
  8
ESF_Spielgeraet
100
AcDbLine
 10
11816.44035134338
 20
-1277.421287090532
 30
0.0
 11
11816.5364949045
 21
-1276.612239074917
 31
0.0
  0
LINE
  5
86E09
330
86969
100
AcDbEntity
  8
ESF_Spielgeraet
100
AcDbLine
 10
11821.28972450103
 20
-1277.411980502692
 30
0.0
 11
11821.17728136667
 21
-1276.586736354375
 31
0.0
  0
LINE
  5
86E0A
330
86969
100
AcDbEntity
  8
ESF_Spielgeraet
100
AcDbLine
 10
11818.02601438521
 20
-1275.2892467487
 30
0.0
 11
11819.69101438521
 21
-1275.2892467487
 31
0.0
  0
ENDBLK
  5
86BB0
330
86969
100
AcDbEntity
  8
0
100
AcDbBlockEnd
  0
ENDSEC
  0
SECTION
  2
ENTITIES
  0
INSERT
  5
86BC1
330
23
100
AcDbEntity
  8
Kontur 18
100
AcDbBlockReference
  2
Eigentum
 10
-2609262600.545947
 20
-2523174235.774176
 30
0.0
 41
0.0899890150730129
 42
0.0899890150730129
 43
0.0899890150730129
  0
INSERT
  5
86BC2
330
23
100
AcDbEntity
  8
ESF_Spielgeraet
100
AcDbBlockReference
  2
20-1221 Stifterbank
 10
-2609274417.091199
 20
-2523172954.648128
 30
0.0
  0
VIEWPORT
  5
31D0B
102
{ACAD_XDICTIONARY
360
31D0C
102
}
330
31D04
100
AcDbEntity
 67
     1
  8
0
100
AcDbViewport
 10
483.282452401171
 20
349.7422830377499
 30
0.0
 40
1593.145427720032
 41
733.7515219152199
 68
     1
 69
     1
 12
483.282452401171
 22
349.7422830377499
 13
0.0
 23
0.0
 14
10.0
 24
10.0
 15
10.0
 25
10.0
 16
0.0
 26
0.0
 36
1.0
 17
0.0
 27
0.0
 37
0.0
 42
50.0
 43
0.0
 44
0.0
 45
733.7515219152199
 50
0.0
 51
0.0
 72
  1000
 90
   557088
  1

281
     0
 71
     1
 74
     0
110
0.0
120
0.0
130
0.0
111
1.0
121
0.0
131
0.0
112
0.0
122
1.0
132
0.0
 79
     0
146
0.0
1001
GENIUS_GENOBJ-N-SDF_13
1002
{
1000
OWNER
1000
GEN
1002
}
1001
GENIUS_GENODEF_13
1002
{
1000
HIER
1070
     0
1002
}
1002
{
1000
MANEDIT
1070
     0
1002
}
1002
{
1000
NOSEL
1070
     0
1002
}
1002
{
1000
BEHIND
1070
     0
1002
}
1002
{
1000
OTHER
1070
     0
1002
}
1002
{
1000
REACTOR
1002
}
1001
GENIUS_GENSCREG_15
1000
PF
1040
1.0
1000
DF
1040
1.0
1000
MIN
1011
-313.2902614588452
1021
-17.13347791986007
1031
0.0
1000
MAX
1011
1279.855166261187
1021
716.6180439953598
1031
0.0
1000
FLAGS
1070
     4
  0
VIEWPORT
  5
31D0F
102
{ACAD_XDICTIONARY
360
31D10
102
}
330
31D04
100
AcDbEntity
 67
     1
  8
Bemaßung
100
AcDbViewport
 10
416.7762314517069
 20
293.3561253583834
 30
0.0
 40
832.0298757025367
 41
585.200334932296
 68
     2
 69
     2
 12
0.6081051326059708
 22
11.61366432708467
 13
0.0
 23
0.0
 14
10.0
 24
10.0
 15
10.0
 25
10.0
 16
0.0
 26
0.0
 36
121.097421126282
 17
-394.7731158432434
 27
-119.1469778502139
 37
0.0
 42
50.0
 43
0.0
 44
0.0
 45
58.52003427387774
 50
0.0
 51
0.0
 72
  1000
 90
   819296
  1

281
     0
 71
     1
 74
     0
110
0.0
120
0.0
130
0.0
111
1.0
121
0.0
131
0.0
112
0.0
122
1.0
132
0.0
 79
     0
146
0.0
1001
GENIUS_GENOBJ-N-SDF_13
1002
{
1000
OWNER
1000
GEN
1002
}
1001
GENIUS_GENODEF_13
1002
{
1000
HIER
1070
     0
1002
}
1002
{
1000
MANEDIT
1070
     0
1002
}
1002
{
1000
NOSEL
1070
     0
1002
}
1002
{
1000
BEHIND
1070
     0
1002
}
1002
{
1000
OTHER
1070
     0
1002
}
1002
{
1000
REACTOR
1002
}
1001
GENIUS_GENSCREG_15
1000
PF
1040
0.0
1000
DF
1040
0.0
1000
MIN
1011
0.7612936004385347
1021
0.7559578922353012
1031
0.0
1000
MAX
1011
832.7911693029754
1021
585.9562928245313
1031
0.0
1000
FLAGS
1070
     4
  0
ENDSEC
  0
SECTION
  2
OBJECTS
  0
DICTIONARY
  5
C
330
0
100
AcDbDictionary
281
     1
  3
ACAD_2007HEADERVARS_RT
350
86E80
  3
ACAD_BACKGROUND
350
A3CD
  3
ACAD_CIP_PREVIOUS_PRODUCT_INFO
350
31BFC
  3
ACAD_COLOR
350
1C
  3
ACAD_DETAILVIEWSTYLE
350
31BF3
  3
ACAD_FIELDLIST
350
535E2
  3
ACAD_GROUP
350
D
  3
ACAD_IMAGE_DICT
350
6518
  3
ACAD_IMAGE_VARS
350
651A
  3
ACAD_LAYOUT
350
1A
  3
ACAD_MATERIAL
350
1B
  3
ACAD_MLEADERSTYLE
350
252D
  3
ACAD_MLINESTYLE
350
17
  3
ACAD_PDFDEFINITIONS
350
22688
  3
ACAD_PLOTSETTINGS
350
19
  3
ACAD_PLOTSTYLENAME
350
E
  3
ACAD_SCALELIST
350
250B
  3
ACAD_SECTIONVIEWSTYLE
350
31BF1
  3
ACAD_TABLESTYLE
350
1D
  3
ACAD_VISUALSTYLE
350
1D92
  3
ACAD_WIPEOUT_VARS
350
10CEB
  3
AcadDim
350
1AFF
  3
ACDB_RECOMPOSE_DATA
350
86E7E
  3
AcDbVariableDictionary
350
4C
  3
AcDsDecomposeData
350
86E87
  3
AcmDictionary
350
535AD
  3
AEC_PROPERTY_SET_DEFS
350
5E76
  3
AMG
350
53586
  3
AMGSNAPSETTINGS
350
535F5
  3
DWGPROPS
350
86E7F
  0
DICTIONARY
  5
592E
330
8
100
AcDbDictionary
280
     1
281
     1
  0
DICTIONARY
  5
48
330
2
100
AcDbDictionary
280
     1
281
     1
  3
ACAD_LAYERFILTERS
360
5B6B
  3
ACAD_LAYERSTATES
360
67
  3
ACLYDICTIONARY
360
5B6A
  0
DICTIONARY
  5
253B
330
10
100
AcDbDictionary
280
     1
281
     1
  3
ADSK_XREC_LAYER_RECONCILED
360
253C
  0
DICTIONARY
  5
2549
330
3F
100
AcDbDictionary
280
     1
281
     1
  3
ADSK_XREC_LAYER_RECONCILED
360
254A
  0
DICTIONARY
  5
32AF4
330
32AF3
100
AcDbDictionary
280
     1
281
     1
  0
DICTIONARY
  5
517C9
330
517C8
100
AcDbDictionary
280
     1
281
     1
  0
DICTIONARY
  5
1FDD
330
23
100
AcDbDictionary
280
     1
281
     1
  3
ACAD_SORTENTS
360
1FDE
  0
DICTIONARY
  5
51991
330
5198F
100
AcDbDictionary
280
     1
281
     1
  3
ACAD_SORTENTS
360
51992
  0
DICTIONARY
  5
86E0B
330
86969
100
AcDbDictionary
280
     1
281
     1
  0
DICTIONARY
  5
86ECB
330
51990
100
AcDbDictionary
280
     1
281
     1
  3
ACAD_MTEXT_RT
360
86ECC
  0
DICTIONARY
  5
31D0C
330
31D0B
100
AcDbDictionary
280
     1
281
     1
  3
ACAD_XREC_ROUNDTRIP
360
86EC9
  3
ASDK_XREC_ANNOTATION_SCALE_INFO
360
31D0D
  0
DICTIONARY
  5
31D10
330
31D0F
100
AcDbDictionary
280
     1
281
     1
  3
ACAD_XREC_ROUNDTRIP
360
86ECA
  3
ASDK_XREC_ANNOTATION_SCALE_INFO
360
31D11
  0
DICTIONARY
  5
86E80
102
{ACAD_REACTORS
330
C
102
}
330
C
100
AcDbDictionary
281
     1
  3
INTERFEREVPVS
350
86E81
  0
DICTIONARY
  5
A3CD
102
{ACAD_REACTORS
330
C
102
}
330
C
100
AcDbDictionary
281
     1
  0
XRECORD
  5
31BFC
102
{ACAD_REACTORS
330
C
102
}
330
C
100
AcDbXrecord
280
     1
300
AMECH_PP
300
2015
300
PDSP_F_S
  0
DICTIONARY
  5
1C
102
{ACAD_REACTORS
330
C
102
}
330
C
100
AcDbDictionary
281
     1
  3
RAL CLASSIC$RAL 5010
350
53758
  3
RAL CLASSIC$RAL 5012
350
53759
  3
RAL CLASSIC$RAL 5013
350
5375A
  3
RAL CLASSIC$RAL 5018
350
5375B
  0
DICTIONARY
  5
31BF3
102
{ACAD_REACTORS
330
C
102
}
330
C
100
AcDbDictionary
281
     1
  3
Imperial24
350
5795B
  3
Metric50
350
31BF4
  0
FIELDLIST
  5
535E2
102
{ACAD_REACTORS
330
C
102
}
330
C
100
AcDbIdSet
 90
        6
330
852A8
330
852A9
330
852AA
330
852AE
330
852AF
330
852B0
100
AcDbFieldList
  0
DICTIONARY
  5
D
102
{ACAD_REACTORS
330
C
102
}
330
C
100
AcDbDictionary
281
     1
  0
DICTIONARY
  5
6518
102
{ACAD_REACTORS
330
C
102
}
330
C
100
AcDbDictionary
281
     1
  0
RASTERVARIABLES
  5
651A
102
{ACAD_REACTORS
330
C
102
}
330
C
100
AcDbRasterVariables
 90
        0
 70
     3
 71
     1
 72
     1
  0
DICTIONARY
  5
1A
102
{ACAD_REACTORS
330
C
102
}
330
C
100
AcDbDictionary
281
     1
  3
Layout1
350
31D05
  3
Model
350
26
  0
DICTIONARY
  5
1B
102
{ACAD_REACTORS
330
C
102
}
330
C
100
AcDbDictionary
281
     1
  3
ByBlock
350
1D90
  3
ByLayer
350
1D8F
  3
Global
350
1D91
  0
DICTIONARY
  5
252D
102
{ACAD_REACTORS
330
C
102
}
330
C
100
AcDbDictionary
281
     1
  3
Standard
350
252E
  0
DICTIONARY
  5
17
102
{ACAD_REACTORS
330
C
102
}
330
C
100
AcDbDictionary
281
     1
  3
Standard
350
18
  0
DICTIONARY
  5
22688
102
{ACAD_REACTORS
330
C
102
}
330
C
100
AcDbDictionary
281
     1
  0
DICTIONARY
  5
19
102
{ACAD_REACTORS
330
C
102
}
330
C
100
AcDbDictionary
281
     1
  0
ACDBDICTIONARYWDFLT
  5
E
102
{ACAD_REACTORS
330
C
102
}
330
C
100
AcDbDictionary
281
     1
  3
Normal
350
F
100
AcDbDictionaryWithDefault
340
F
  0
DICTIONARY
  5
250B
102
{ACAD_REACTORS
330
C
102
}
330
C
100
AcDbDictionary
281
     1
  3
A0
350
250C
  0
DICTIONARY
  5
31BF1
102
{ACAD_REACTORS
330
C
102
}
330
C
100
AcDbDictionary
281
     1
  3
Imperial24
350
57953
  3
Metric50
350
31BF2
  0
DICTIONARY
  5
1D
102
{ACAD_REACTORS
330
C
102
}
330
C
100
AcDbDictionary
281
     1
  3
Standard
350
1E
  0
DICTIONARY
  5
1D92
102
{ACAD_REACTORS
330
C
102
}
330
C
100
AcDbDictionary
281
     1
  3
2dWireframe
350
1D98
  3
3D Hidden
350
1D9A
  3
3dWireframe
350
1D99
  3
Basic
350
1D97
  3
Brighten
350
1D9E
  3
ColorChange
350
1DA2
  3
Conceptual
350
1D9B
  3
Dim
350
1D9D
  3
EdgeColorOff
350
58CB
  3
Facepattern
350
1DA1
  3
Flat
350
1D93
  3
FlatWithEdges
350
1D94
  3
Gouraud
350
1D95
  3
GouraudWithEdges
350
1D96
  3
Hidden
350
A3B8
  3
JitterOff
350
58C9
  3
Linepattern
350
1DA0
  3
OverhangOff
350
58CA
  3
Realistic
350
1D9C
  3
Shaded
350
A3BD
  3
Shaded with edges
350
A3BC
  3
Shades of Gray
350
A3B9
  3
Sketchy
350
A3BA
  3
Thicken
350
1D9F
  3
Wireframe
350
A3B7
  3
X-Ray
350
A3BB
  0
WIPEOUTVARIABLES
  5
10CEB
102
{ACAD_REACTORS
330
C
102
}
330
C
100
AcDbWipeoutVariables
 70
     1
  0
XRECORD
  5
1AFF
102
{ACAD_REACTORS
330
C
102
}
330
C
100
AcDbXrecord
280
     1
 90
   990106
  3

 60
     0
 61
     0
 62
     1
 63
     3
 64
     0
 65
     0
 66
     0
 67
     3
 68
     1
 69
     0
 70
     0
 71
     0
 72
     0
 40
0.0
170
     0
  0
XRECORD
  5
86E7E
102
{ACAD_REACTORS
330
C
102
}
330
C
100
AcDbXrecord
280
     1
 90
        1
330
1E
  0
DICTIONARY
  5
4C
102
{ACAD_REACTORS
330
C
102
}
330
C
100
AcDbDictionary
281
     1
  3
ANNOALLVISIBLE
350
32C7D
  3
CANNOSCALE
350
2569
  3
CMLEADERSTYLE
350
2567
  3
CTABLESTYLE
350
4D
  3
CVIEWDETAILSTYLE
350
31C1B
  3
CVIEWSECTIONSTYLE
350
31C1C
  3
DIMASSOC
350
83
  3
HIDETEXT
350
82
  3
INDEXCTL
350
597E
  3
LAYEREVAL
350
A45A
  3
LAYERNOTIFY
350
A45B
  3
LIGHTINGUNITS
350
256A
  3
MLEADERSCALE
350
597C
  3
MSLTSCALE
350
2568
  3
PROJECTNAME
350
84
  3
SOLIDHIST
350
32C1C
  3
SORTENTS
350
597D
  3
XCLIPFRAME
350
86E7C
  0
DICTIONARY
  5
86E87
102
{ACAD_REACTORS
330
C
102
}
330
C
100
AcDbDictionary
281
     1
  3
AcDsRecords
350
86E89
  3
AcDsSchemas
350
86E88
1001
ACAD
1070
     2
  0
DICTIONARY
  5
535AD
102
{ACAD_REACTORS
330
C
102
}
330
C
100
AcDbDictionary
281
     1
  3
AcmStdDictionary
350
535B6
  0
DICTIONARY
  5
5E76
102
{ACAD_REACTORS
330
C
102
}
330
C
100
AcDbDictionary
281
     1
  0
DICTIONARY
  5
53586
102
{ACAD_REACTORS
330
C
102
}
330
C
100
AcDbDictionary
281
     1
  0
DICTIONARY
  5
535F5
102
{ACAD_REACTORS
330
C
102
}
330
C
100
AcDbDictionary
281
     1
  0
XRECORD
  5
86E7F
102
{ACAD_REACTORS
330
C
102
}
330
C
100
AcDbXrecord
280
     1
  1
DWGPROPS COOKIE
  2

  3

  4

  6

  7

  8
mchristoph
  9

300
=
301
=
302
=
303
=
304
=
305
=
306
=
307
=
308
=
309
=
 40
4.597541539351851
 41
2453325.398830648
 42
2458018.349732905
  1

 90
        0
  0
DICTIONARY
  5
5B6B
102
{ACAD_REACTORS
330
48
102
}
330
48
100
AcDbDictionary
281
     1
  0
DICTIONARY
  5
67
102
{ACAD_REACTORS
330
48
102
}
330
48
100
AcDbDictionary
281
     1
  0
DICTIONARY
  5
5B6A
102
{ACAD_REACTORS
330
48
102
}
330
48
100
AcDbDictionary
281
     1
1001
ACAD
1000
<All
  0
XRECORD
  5
253C
102
{ACAD_REACTORS
330
253B
102
}
330
253B
100
AcDbXrecord
280
     1
290
     1
  0
XRECORD
  5
254A
102
{ACAD_REACTORS
330
2549
102
}
330
2549
100
AcDbXrecord
280
     1
290
     1
  0
SORTENTSTABLE
  5
1FDE
102
{ACAD_REACTORS
330
1FDD
102
}
330
1FDD
100
AcDbSortentsTable
330
23
  0
SORTENTSTABLE
  5
51992
102
{ACAD_REACTORS
330
51991
102
}
330
51991
100
AcDbSortentsTable
330
5198F
  0
XRECORD
  5
86ECC
102
{ACAD_REACTORS
330
86ECB
102
}
330
86ECB
100
AcDbXrecord
280
     1
 40
6950541.0
  1
{\fTahoma|b0|i0|c0|p34;\LDiese Zeichnung ist Eigentum der Firma:\P\lESF Emsland Spiel- und Freizeitgeräte GmbH & Co. KG\PThyssenstraße 7, 49744 Geeste\PTel: 05937/ 97189-0 ; Fax: 05937/ 97189-90\PAlle Rechte sind bei den Autoren.\PDiese Unterlage dar
  1
f nicht ohne Zustimmung der o. g. Firma in den Ausschreibungen verwendet werden.\PDer nicht autorisierte Nachbau ist kostenpflichtig.}
  0
XRECORD
  5
86EC9
102
{ACAD_REACTORS
330
31D0C
102
}
330
31D0C
100
AcDbXrecord
280
     1
102
SHADEPLOT
 70
     0
  0
XRECORD
  5
31D0D
102
{ACAD_REACTORS
330
31D0C
102
}
330
31D0C
100
AcDbXrecord
280
     1
 90
        1
340
250C
  0
XRECORD
  5
86ECA
102
{ACAD_REACTORS
330
31D10
102
}
330
31D10
100
AcDbXrecord
280
     1
102
SHADEPLOT
 70
     0
  0
XRECORD
  5
31D11
102
{ACAD_REACTORS
330
31D10
102
}
330
31D10
100
AcDbXrecord
280
     1
 90
        1
340
250C
  0
XRECORD
  5
86E81
102
{ACAD_REACTORS
330
86E80
102
}
330
86E80
100
AcDbXrecord
280
     1
340
1D99
  0
DBCOLOR
  5
53758
102
{ACAD_REACTORS
330
1C
102
}
330
1C
100
AcDbColor
  0
DBCOLOR
  5
53759
102
{ACAD_REACTORS
330
1C
102
}
330
1C
100
AcDbColor
  0
DBCOLOR
  5
5375A
102
{ACAD_REACTORS
330
1C
102
}
330
1C
100
AcDbColor
  0
DBCOLOR
  5
5375B
102
{ACAD_REACTORS
330
1C
102
}
330
1C
100
AcDbColor
  0
ACDBDETAILVIEWSTYLE
  5
5795B
102
{ACAD_XDICTIONARY
360
86949
102
}
102
{ACAD_REACTORS
330
31BF3
330
852A3
102
}
330
31BF3
100
AcDbModelDocViewStyle
 70
     0
  3
Imperial24
290
     0
100
AcDbDetailViewStyle
 70
     0
 71
     0
 90
        3
 71
     1
340
57949
 40
0.24
340
0
 40
0.24
300

 40
0.36
280
     3
 71
     2
340
16
 90
       25
 71
     3
340
57949
 40
0.24
 90
        1
 40
0.75
 90
        1
300
%<\AcVar ViewType \f "%tc1">% %<\AcVar ViewDetailId>%\PVARIA %<\AcVar ViewScale \f "%sn">%
 71
     4
340
16
 90
       25
340
16
 90
       25
280
     0
  0
ACDBDETAILVIEWSTYLE
  5
31BF4
102
{ACAD_XDICTIONARY
360
86945
102
}
102
{ACAD_REACTORS
330
31BF3
330
852A4
102
}
330
31BF3
100
AcDbModelDocViewStyle
 70
     0
  3
Metric50
290
     0
100
AcDbDetailViewStyle
 70
     0
 71
     0
 90
        3
 71
     1
340
11
 40
5.0
340
0
 40
5.0
300

 40
0.0
280
     1
 71
     2
340
16
 90
       25
 71
     3
340
11
 40
5.0
 90
        0
 40
15.0
 90
        1
300
%<\AcVar ViewDetailId>% (%<\AcVar ViewScale \f "%sn">%)
 71
     4
340
16
 90
       25
340
16
 90
       25
280
     0
1001
ACAD
1000
AcRTDxfName
1000
ACDBDETAILVIEWSTYLE
1000
AcRTDxfName
1000
ACDBDETAILVIEWSTYLE
1000
AcRTDxfName
1000
ACDBDETAILVIEWSTYLE
  0
LAYOUT
  5
31D05
102
{ACAD_XDICTIONARY
360
31D19
102
}
102
{ACAD_REACTORS
330
1A
102
}
330
1A
100
AcDbPlotSettings
  1

  2
Canon iPF605
  4
User4403
  6

 40
3.757083415985107
 41
3.75714111328125
 42
3.757080078125
 43
3.757080078125
 44
593.97900390625
 45
840.9940185546874
 46
0.0
 47
0.0
 48
0.0
 49
0.0
140
0.0
141
0.0
142
1.0
143
1.0
 70
   688
 72
     1
 73
     1
 74
     5
  7

 75
    16
147
1.0
148
0.0
149
0.0
100
AcDbLayout
  1
Layout1
 70
     1
 71
     1
 10
-3.757080078125
 20
-3.757083415985107
 11
837.2369384765624
 21
590.2219204902649
 12
0.0
 22
0.0
 32
0.0
 14
0.7612936004385347
 24
0.7559578922353012
 34
0.0
 15
832.7911693029754
 25
585.9562928245313
 35
0.0
146
0.0
 13
0.0
 23
0.0
 33
0.0
 16
1.0
 26
0.0
 36
0.0
 17
0.0
 27
1.0
 37
0.0
 76
     0
330
31D04
331
31D0B
1001
ACAD_PSEXT
1000
Canon iPF605
1000
Canon iPF605
1000
192.168.10.93
1000

1070
     0
  0
LAYOUT
  5
26
102
{ACAD_XDICTIONARY
360
59CC
102
}
102
{ACAD_REACTORS
330
1A
102
}
330
1A
100
AcDbPlotSettings
  1

  2
\\pc17\HP DeskJet 1220C A4
  4
A4
  6

 40
4.180416584014892
 41
12.562424659729
 42
4.180404663085937
 43
3.84173583984375
 44
209.9733276367187
 45
296.9259948730469
 46
0.0
 47
0.0
 48
0.0
 49
0.0
140
0.0
141
0.0
142
1.0
143
1.0
 70
 11952
 72
     1
 73
     0
 74
     0
  7
monochrome.ctb
 75
    16
147
1.0
148
121.7955125582991
149
19.45327258920656
100
AcDbLayout
  1
Model
 70
     1
 71
     0
 10
0.0
 20
0.0
 11
12.0
 21
9.0
 12
0.0
 22
0.0
 32
0.0
 14
0.0
 24
0.0
 34
0.0
 15
0.0
 25
0.0
 35
0.0
146
0.0
 13
0.0
 23
0.0
 33
0.0
 16
1.0
 26
0.0
 36
0.0
 17
0.0
 27
1.0
 37
0.0
 76
     0
330
23
331
1D8D
1001
ACAD_PSEXT
1000
\\pc17\HP DeskJet 1220C A4
1000
HP DeskJet 1220C
1000
Zeichenbüro
1000
A4
1070
     0
  0
MATERIAL
  5
1D90
102
{ACAD_XDICTIONARY
360
86E8E
102
}
102
{ACAD_REACTORS
330
1B
102
}
330
1B
100
AcDbMaterial
  1
ByBlock
 73
     1
 78
     1
172
     1
176
     1
270
     1
274
     1
  0
MATERIAL
  5
1D8F
102
{ACAD_XDICTIONARY
360
86E8C
102
}
102
{ACAD_REACTORS
330
1B
102
}
330
1B
100
AcDbMaterial
  1
ByLayer
 73
     1
 78
     1
172
     1
176
     1
270
     1
274
     1
  0
MATERIAL
  5
1D91
102
{ACAD_XDICTIONARY
360
86E90
102
}
102
{ACAD_REACTORS
330
1B
102
}
330
1B
100
AcDbMaterial
  1
Global
 73
     1
 78
     1
172
     1
176
     1
270
     1
274
     1
  0
MLEADERSTYLE
  5
252E
102
{ACAD_REACTORS
330
252D
102
}
330
252D
100
AcDbMLeaderStyle
170
     2
171
     1
172
     0
 90
        2
 40
0.0
 41
0.0
173
     1
 91
-1056964608
340
14
 92
       -2
290
     1
 42
2.0
291
     1
 43
0.36
  3
Standard
 44
4.0
300

342
11
174
     1
178
     6
175
     1
176
     0
 93
-1056964608
 45
4.0
292
     0
297
     0
 46
4.0
 94
-1056964608
 47
1.0
 49
1.0
140
1.0
293
     1
141
0.0
294
     1
177
     0
142
1.0
295
     0
296
     0
143
0.125
1001
ACAD_MLEADERVER
1070
     2
  0
MLINESTYLE
  5
18
102
{ACAD_REACTORS
330
17
102
}
330
17
100
AcDbMlineStyle
  2
STANDARD
 70
     0
  3

 62
   256
 51
90.0
 52
90.0
 71
     2
 49
0.5
 62
   256
  6
BYLAYER
 49
-0.5
 62
   256
  6
BYLAYER
  0
ACDBPLACEHOLDER
  5
F
102
{ACAD_REACTORS
330
E
102
}
330
E
  0
SCALE
  5
250C
102
{ACAD_REACTORS
330
250B
102
}
330
250B
100
AcDbScale
 70
     0
300
1:1
140
1.0
141
1.0
290
     1
  0
ACDBSECTIONVIEWSTYLE
  5
57953
102
{ACAD_XDICTIONARY
360
86947
102
}
102
{ACAD_REACTORS
330
31BF1
330
852A0
102
}
330
31BF1
100
AcDbModelDocViewStyle
 70
     0
  3
Imperial24
290
     0
100
AcDbSectionViewStyle
 70
     0
 71
     0
 90
       78
 71
     1
340
57949
 40
0.24
340
0
340
0
 40
0.24
300
I, O, Q, S, X, Z
 40
0.48
 90
        3
 40
0.18
 90
        1
 71
     2
340
16
 90
       25
340
16
 90
       50
 40
0.24
 40
0.0
 40
0.24
 71
     3
340
57949
 40
0.24
 90
        1
 40
0.75
 90
        1
300
%<\AcVar ViewType \f "%tc1">% %<\AcVar ViewSectionStartId>%-%<\AcVar ViewSectionEndId>%\PVARIA %<\AcVar ViewScale \f "%sn">%
 71
     4
300
ANSI31
 40
1.0
 90
        0
290
     0
290
     0
 90
        6
 40
0.0
 40
1.570796326794896
 40
0.2617993877991494
 40
1.308996938995747
 40
-0.2617993877991494
 40
1.832595714594046
  0
ACDBSECTIONVIEWSTYLE
  5
31BF2
102
{ACAD_XDICTIONARY
360
86943
102
}
102
{ACAD_REACTORS
330
31BF1
330
852A1
102
}
330
31BF1
100
AcDbModelDocViewStyle
 70
     0
  3
Metric50
290
     0
100
AcDbSectionViewStyle
 70
     0
 71
     0
 90
      102
 71
     1
340
11
 40
5.0
340
0
340
0
 40
5.0
300
I, O, Q, S, X, Z
 40
10.0
 90
        0
 40
2.5
 90
        0
 71
     2
340
16
 90
       25
340
16
 90
       50
 40
5.0
 40
2.5
 40
5.0
 71
     3
340
11
 40
5.0
 90
        0
 40
15.0
 90
        1
300
%<\AcVar ViewSectionStartId>%-%<\AcVar ViewSectionEndId>% (%<\AcVar ViewScale \f "%sn">%)
 71
     4
300
ANSI31
 40
1.0
 90
        0
290
     0
290
     0
 90
        6
 40
0.0
 40
1.570796326794896
 40
0.2617993877991494
 40
1.308996938995747
 40
-0.2617993877991494
 40
1.832595714594046
1001
ACAD
1000
AcRTDxfName
1000
ACDBSECTIONVIEWSTYLE
1000
AcRTDxfName
1000
ACDBSECTIONVIEWSTYLE
1000
AcRTDxfName
1000
ACDBSECTIONVIEWSTYLE
  0
TABLESTYLE
  5
1E
102
{ACAD_XDICTIONARY
360
2563
102
}
102
{ACAD_REACTORS
330
1D
102
}
330
1D
100
AcDbTableStyle
  3
Standard
 70
     0
 71
     0
 40
1.5
 41
1.5
280
     0
281
     0
  7
Standard
140
4.5
170
     2
 62
     0
 63
     7
283
     0
274
    -2
284
     1
 64
     0
275
    -2
285
     1
 65
     0
276
    -2
286
     1
 66
     0
277
    -2
287
     1
 67
     0
278
    -2
288
     1
 68
     0
279
    -2
289
     1
 69
     0
  7
Standard
140
6.0
170
     5
 62
     0
 63
     7
283
     0
274
    -2
284
     1
 64
     0
275
    -2
285
     1
 65
     0
276
    -2
286
     1
 66
     0
277
    -2
287
     1
 67
     0
278
    -2
288
     1
 68
     0
279
    -2
289
     1
 69
     0
  7
Standard
140
4.5
170
     5
 62
     0
 63
     7
283
     0
274
    -2
284
     1
 64
     0
275
    -2
285
     1
 65
     0
276
    -2
286
     1
 66
     0
277
    -2
287
     1
 67
     0
278
    -2
288
     1
 68
     0
279
    -2
289
     1
 69
     0
  0
VISUALSTYLE
  5
1D98
102
{ACAD_XDICTIONARY
360
86E9C
102
}
102
{ACAD_REACTORS
330
1D92
102
}
330
1D92
100
AcDbVisualStyle
  2
2dWireframe
 70
     4
 71
     0
 72
     2
 73
     0
 90
        0
 40
-0.6
 41
-30.0
 62
     5
 63
     7
 74
     1
 91
        4
 64
     7
 65
   257
 75
     1
175
     1
 42
1.0
 92
        0
 66
   257
 43
1.0
 76
     1
 77
     6
 78
     2
 67
     7
 79
     5
170
     0
171
     0
290
     0
174
     0
 93
        1
 44
0.0
173
     0
291
     0
 45
0.0
1001
ACAD
1000
AcDbSavedByObjectVersion
1070
     0
  0
VISUALSTYLE
  5
1D9A
102
{ACAD_XDICTIONARY
360
86EA0
102
}
102
{ACAD_REACTORS
330
1D92
102
}
330
1D92
100
AcDbVisualStyle
  2
3D Hidden
 70
     6
 71
     1
 72
     2
 73
     2
 90
        0
 40
-0.6
 41
-30.0
 62
     5
 63
     7
 74
     2
 91
        2
 64
     7
 65
   257
 75
     2
175
     1
 42
40.0
 92
        0
 66
   257
 43
1.0
 76
     1
 77
     6
 78
     2
 67
     7
 79
     3
170
     0
171
     0
290
     0
174
     0
 93
        1
 44
0.0
173
     0
291
     0
 45
0.0
1001
ACAD
1000
AcDbSavedByObjectVersion
1070
     0
  0
VISUALSTYLE
  5
1D99
102
{ACAD_XDICTIONARY
360
86E9E
102
}
102
{ACAD_REACTORS
330
1D92
102
}
330
1D92
100
AcDbVisualStyle
  2
3dWireframe
 70
     5
 71
     0
 72
     2
 73
     0
 90
        0
 40
-0.6
 41
-30.0
 62
     5
 63
     7
 74
     1
 91
        4
 64
     7
 65
   257
 75
     1
175
     1
 42
1.0
 92
        0
 66
   257
 43
1.0
 76
     1
 77
     6
 78
     2
 67
     7
 79
     5
170
     0
171
     0
290
     0
174
     0
 93
        1
 44
0.0
173
     0
291
     0
 45
0.0
1001
ACAD
1000
AcDbSavedByObjectVersion
1070
     0
  0
VISUALSTYLE
  5
1D97
102
{ACAD_XDICTIONARY
360
86E9A
102
}
102
{ACAD_REACTORS
330
1D92
102
}
330
1D92
100
AcDbVisualStyle
  2
Basic
 70
     7
 71
     1
 72
     0
 73
     1
 90
        0
 40
-0.6
 41
-30.0
 62
     5
 63
     7
 74
     0
 91
        4
 64
     7
 65
   257
 75
     1
175
     1
 42
1.0
 92
        8
 66
     7
 43
1.0
 76
     1
 77
     6
 78
     2
 67
     7
 79
     5
170
     0
171
     0
290
     0
174
     0
 93
        1
 44
0.0
173
     0
291
     1
 45
0.0
1001
ACAD
1000
AcDbSavedByObjectVersion
1070
     0
  0
VISUALSTYLE
  5
1D9E
102
{ACAD_XDICTIONARY
360
86EA8
102
}
102
{ACAD_REACTORS
330
1D92
102
}
330
1D92
100
AcDbVisualStyle
  2
Brighten
 70
    12
 71
     2
 72
     2
 73
     0
 90
        0
 40
-0.6
 41
-30.0
 62
     5
 63
     7
 74
     1
 91
        4
 64
     7
 65
   257
 75
     1
175
     1
 42
1.0
 92
        8
 66
     7
 43
1.0
 76
     1
 77
     6
 78
     2
 67
     7
 79
     5
170
     0
171
     0
290
     0
174
     0
 93
        1
 44
50.0
173
     0
291
     1
 45
0.0
1001
ACAD
1000
AcDbSavedByObjectVersion
1070
     0
  0
VISUALSTYLE
  5
1DA2
102
{ACAD_XDICTIONARY
360
86EB0
102
}
102
{ACAD_REACTORS
330
1D92
102
}
330
1D92
100
AcDbVisualStyle
  2
ColorChange
 70
    16
 71
     2
 72
     2
 73
     3
 90
        0
 40
-0.6
 41
-30.0
 62
     5
 63
     8
 74
     1
 91
        4
 64
     7
 65
   257
 75
     1
175
     1
 42
1.0
 92
        8
 66
     8
 43
1.0
 76
     1
 77
     6
 78
     2
 67
     7
 79
     5
170
     0
171
     0
290
     0
174
     0
 93
        1
 44
0.0
173
     0
291
     1
 45
0.0
1001
ACAD
1000
AcDbSavedByObjectVersion
1070
     0
  0
VISUALSTYLE
  5
1D9B
102
{ACAD_XDICTIONARY
360
86EA2
102
}
102
{ACAD_REACTORS
330
1D92
102
}
330
1D92
100
AcDbVisualStyle
  2
Conceptual
 70
     9
 71
     3
 72
     2
 73
     0
 90
        0
 40
-0.6
 41
-30.0
 62
     5
 63
     7
 74
     2
 91
        2
 64
     7
 65
   257
 75
     1
175
     1
 42
40.0
 92
        8
 66
     7
 43
1.0
 76
     1
 77
     6
 78
     2
 67
     7
 79
     3
170
     0
171
     0
290
     0
174
     0
 93
        1
 44
0.0
173
     0
291
     0
 45
0.0
1001
ACAD
1000
AcDbSavedByObjectVersion
1070
     0
  0
VISUALSTYLE
  5
1D9D
102
{ACAD_XDICTIONARY
360
86EA6
102
}
102
{ACAD_REACTORS
330
1D92
102
}
330
1D92
100
AcDbVisualStyle
  2
Dim
 70
    11
 71
     2
 72
     2
 73
     0
 90
        0
 40
-0.6
 41
-30.0
 62
     5
 63
     7
 74
     1
 91
        4
 64
     7
 65
   257
 75
     1
175
     1
 42
1.0
 92
        8
 66
     7
 43
1.0
 76
     1
 77
     6
 78
     2
 67
     7
 79
     5
170
     0
171
     0
290
     0
174
     0
 93
        1
 44
-50.0
173
     0
291
     1
 45
0.0
1001
ACAD
1000
AcDbSavedByObjectVersion
1070
     0
  0
VISUALSTYLE
  5
58CB
102
{ACAD_XDICTIONARY
360
86EB6
102
}
102
{ACAD_REACTORS
330
1D92
102
}
330
1D92
100
AcDbVisualStyle
  2
EdgeColorOff
 70
    22
 71
     2
 72
     2
 73
     0
 90
        0
 40
-0.6
 41
-30.0
 62
     5
 63
     7
 74
     1
 91
        4
 64
     7
 65
   257
 75
     1
175
     1
 42
1.0
 92
        8
 66
     7
 43
1.0
 76
     1
 77
     6
 78
     2
 67
     7
 79
     5
170
     0
171
     0
290
     0
174
     0
 93
        1
 44
0.0
173
     0
291
     1
 45
0.0
1001
ACAD
1000
AcDbSavedByObjectVersion
1070
     0
  0
VISUALSTYLE
  5
1DA1
102
{ACAD_XDICTIONARY
360
86EAE
102
}
102
{ACAD_REACTORS
330
1D92
102
}
330
1D92
100
AcDbVisualStyle
  2
Facepattern
 70
    15
 71
     2
 72
     2
 73
     0
 90
        0
 40
-0.6
 41
-30.0
 62
     5
 63
     7
 74
     1
 91
        4
 64
     7
 65
   257
 75
     1
175
     1
 42
1.0
 92
        8
 66
     7
 43
1.0
 76
     1
 77
     6
 78
     2
 67
     7
 79
     5
170
     0
171
     0
290
     0
174
     0
 93
        1
 44
0.0
173
     0
291
     1
 45
0.0
1001
ACAD
1000
AcDbSavedByObjectVersion
1070
     0
  0
VISUALSTYLE
  5
1D93
102
{ACAD_XDICTIONARY
360
86E92
102
}
102
{ACAD_REACTORS
330
1D92
102
}
330
1D92
100
AcDbVisualStyle
  2
Flat
 70
     0
 71
     2
 72
     1
 73
     1
 90
        2
 40
-0.6
 41
30.0
 62
     5
 63
     7
 74
     0
 91
        4
 64
     7
 65
   257
 75
     1
175
     1
 42
1.0
 92
        8
 66
     7
 43
1.0
 76
     1
 77
     6
 78
     2
 67
     7
 79
     5
170
     0
171
     0
290
     0
174
     0
 93
       13
 44
0.0
173
     0
291
     1
 45
0.0
1001
ACAD
1000
AcDbSavedByObjectVersion
1070
     0
  0
VISUALSTYLE
  5
1D94
102
{ACAD_XDICTIONARY
360
86E94
102
}
102
{ACAD_REACTORS
330
1D92
102
}
330
1D92
100
AcDbVisualStyle
  2
FlatWithEdges
 70
     1
 71
     2
 72
     1
 73
     1
 90
        2
 40
-0.6
 41
30.0
 62
     5
 63
     7
 74
     1
 91
        4
 64
     7
 65
   257
 75
     1
175
     1
 42
1.0
 92
        0
 66
   257
 43
1.0
 76
     1
 77
     6
 78
     2
 67
     7
 79
     5
170
     0
171
     0
290
     0
174
     0
 93
       13
 44
0.0
173
     0
291
     1
 45
0.0
1001
ACAD
1000
AcDbSavedByObjectVersion
1070
     0
  0
VISUALSTYLE
  5
1D95
102
{ACAD_XDICTIONARY
360
86E96
102
}
102
{ACAD_REACTORS
330
1D92
102
}
330
1D92
100
AcDbVisualStyle
  2
Gouraud
 70
     2
 71
     2
 72
     2
 73
     1
 90
        2
 40
-0.6
 41
30.0
 62
     5
 63
     7
 74
     0
 91
        4
 64
     7
 65
   257
 75
     1
175
     1
 42
1.0
 92
        0
 66
     7
 43
1.0
 76
     1
 77
     6
 78
     2
 67
     7
 79
     5
170
     0
171
     0
290
     0
174
     0
 93
       13
 44
0.0
173
     0
291
     1
 45
0.0
1001
ACAD
1000
AcDbSavedByObjectVersion
1070
     0
  0
VISUALSTYLE
  5
1D96
102
{ACAD_XDICTIONARY
360
86E98
102
}
102
{ACAD_REACTORS
330
1D92
102
}
330
1D92
100
AcDbVisualStyle
  2
GouraudWithEdges
 70
     3
 71
     2
 72
     2
 73
     1
 90
        2
 40
-0.6
 41
30.0
 62
     5
 63
     7
 74
     1
 91
        4
 64
     7
 65
   257
 75
     1
175
     1
 42
1.0
 92
        0
 66
   257
 43
1.0
 76
     1
 77
     6
 78
     2
 67
     7
 79
     5
170
     0
171
     0
290
     0
174
     0
 93
       13
 44
0.0
173
     0
291
     1
 45
0.0
1001
ACAD
1000
AcDbSavedByObjectVersion
1070
     0
  0
VISUALSTYLE
  5
A3B8
102
{ACAD_XDICTIONARY
360
86EBA
102
}
102
{ACAD_REACTORS
330
1D92
102
}
330
1D92
100
AcDbVisualStyle
  2
Hidden
 70
     6
 71
     1
 72
     2
 73
     2
 90
        0
 40
-0.6
 41
-30.0
 62
     5
 63
     7
 74
     2
 91
        2
 64
     7
 65
   257
 75
     2
175
     1
 42
40.0
 92
        0
 66
   257
 43
1.0
 76
     1
 77
     6
 78
     2
 67
     7
 79
     3
170
     0
171
     0
290
     0
174
     0
 93
        1
 44
0.0
173
     0
291
     0
 45
0.0
1001
ACAD
1000
AcDbSavedByObjectVersion
1070
     0
  0
VISUALSTYLE
  5
58C9
102
{ACAD_XDICTIONARY
360
86EB2
102
}
102
{ACAD_REACTORS
330
1D92
102
}
330
1D92
100
AcDbVisualStyle
  2
JitterOff
 70
    20
 71
     2
 72
     2
 73
     0
 90
        0
 40
-0.6
 41
-30.0
 62
     5
 63
     7
 74
     1
 91
        4
 64
     7
 65
   257
 75
     1
175
     1
 42
1.0
 92
       10
 66
     7
 43
1.0
 76
     1
 77
     6
 78
     2
 67
     7
 79
     5
170
     0
171
     0
290
     0
174
     0
 93
        1
 44
0.0
173
     0
291
     1
 45
0.0
1001
ACAD
1000
AcDbSavedByObjectVersion
1070
     0
  0
VISUALSTYLE
  5
1DA0
102
{ACAD_XDICTIONARY
360
86EAC
102
}
102
{ACAD_REACTORS
330
1D92
102
}
330
1D92
100
AcDbVisualStyle
  2
Linepattern
 70
    14
 71
     2
 72
     2
 73
     0
 90
        0
 40
-0.6
 41
-30.0
 62
     5
 63
     7
 74
     1
 91
        4
 64
     7
 65
   257
 75
     7
175
     7
 42
1.0
 92
        8
 66
     7
 43
1.0
 76
     1
 77
     6
 78
     2
 67
     7
 79
     5
170
     0
171
     0
290
     0
174
     0
 93
        1
 44
0.0
173
     0
291
     1
 45
0.0
1001
ACAD
1000
AcDbSavedByObjectVersion
1070
     0
  0
VISUALSTYLE
  5
58CA
102
{ACAD_XDICTIONARY
360
86EB4
102
}
102
{ACAD_REACTORS
330
1D92
102
}
330
1D92
100
AcDbVisualStyle
  2
OverhangOff
 70
    21
 71
     2
 72
     2
 73
     0
 90
        0
 40
-0.6
 41
-30.0
 62
     5
 63
     7
 74
     1
 91
        4
 64
     7
 65
   257
 75
     1
175
     1
 42
1.0
 92
        9
 66
     7
 43
1.0
 76
     1
 77
     6
 78
     2
 67
     7
 79
     5
170
     0
171
     0
290
     0
174
     0
 93
        1
 44
0.0
173
     0
291
     1
 45
0.0
1001
ACAD
1000
AcDbSavedByObjectVersion
1070
     0
  0
VISUALSTYLE
  5
1D9C
102
{ACAD_XDICTIONARY
360
86EA4
102
}
102
{ACAD_REACTORS
330
1D92
102
}
330
1D92
100
AcDbVisualStyle
  2
Realistic
 70
     8
 71
     2
 72
     2
 73
     0
 90
        0
 40
-0.6
 41
-30.0
 62
     5
 63
     7
 74
     1
 91
        0
 64
     7
 65
   257
 75
     1
175
     1
 42
1.0
 92
        8
 66
     8
 43
1.0
 76
     1
 77
     6
 78
     2
 67
     7
 79
     5
170
     0
171
     0
290
     0
174
     0
 93
       13
 44
0.0
173
     0
291
     0
 45
0.0
1001
ACAD
1000
AcDbSavedByObjectVersion
1070
     0
  0
VISUALSTYLE
  5
A3BD
102
{ACAD_XDICTIONARY
360
86EC4
102
}
102
{ACAD_REACTORS
330
1D92
102
}
330
1D92
100
AcDbVisualStyle
  2
Shaded
 70
    27
 71
     2
 72
     2
 73
     1
 90
        2
 40
-0.6
 41
30.0
 62
     5
 63
     7
 74
     0
 91
        4
 64
     7
 65
   257
 75
     1
175
     1
 42
1.0
 92
        8
 66
   257
 43
1.0
 76
     1
 77
     6
 78
     2
 67
     8
 79
     3
170
     0
171
     0
290
     0
174
     0
 93
        5
 44
0.0
173
     0
291
     0
 45
0.0
1001
ACAD
1000
AcDbSavedByObjectVersion
1070
     0
  0
VISUALSTYLE
  5
A3BC
102
{ACAD_XDICTIONARY
360
86EC2
102
}
102
{ACAD_REACTORS
330
1D92
102
}
330
1D92
100
AcDbVisualStyle
  2
Shaded with edges
 70
    26
 71
     2
 72
     2
 73
     1
 90
        2
 40
-0.6
 41
30.0
 62
     5
 63
     7
 74
     1
 91
       10
 64
     7
 65
   257
 75
     2
175
     1
 42
1.0
 92
        8
 66
   257
 43
1.0
 76
     1
 77
     6
 78
     2
 67
     7
 79
     3
170
     0
171
     0
290
     0
174
     0
 93
        5
 44
0.0
173
     0
291
     0
 45
0.0
1001
ACAD
1000
AcDbSavedByObjectVersion
1070
     0
  0
VISUALSTYLE
  5
A3B9
102
{ACAD_XDICTIONARY
360
86EBC
102
}
102
{ACAD_REACTORS
330
1D92
102
}
330
1D92
100
AcDbVisualStyle
  2
Shades of Gray
 70
    23
 71
     2
 72
     2
 73
     3
 90
        0
 40
-0.6
 41
-30.0
 62
     5
 63
     7
 74
     2
 91
        2
 64
     7
 65
     7
 75
     1
175
     1
 42
40.0
 92
        8
 66
     7
 43
1.0
 76
     1
 77
     6
 78
     2
 67
     7
 79
     3
170
     0
171
     0
290
     0
174
     0
 93
        1
 44
0.0
173
     0
291
     0
 45
0.0
1001
ACAD
1000
AcDbSavedByObjectVersion
1070
     0
  0
VISUALSTYLE
  5
A3BA
102
{ACAD_XDICTIONARY
360
86EBE
102
}
102
{ACAD_REACTORS
330
1D92
102
}
330
1D92
100
AcDbVisualStyle
  2
Sketchy
 70
    24
 71
     1
 72
     2
 73
     2
 90
        0
 40
-0.6
 41
-30.0
 62
     5
 63
     7
 74
     2
 91
        2
 64
     7
 65
     7
 75
     1
175
     1
 42
40.0
 92
       11
 66
     7
 43
1.0
 76
     1
 77
     6
 78
     2
 67
     7
 79
     6
170
     0
171
     0
290
     0
174
     0
 93
        1
 44
0.0
173
     0
291
     0
 45
0.0
1001
ACAD
1000
AcDbSavedByObjectVersion
1070
     0
  0
VISUALSTYLE
  5
1D9F
102
{ACAD_XDICTIONARY
360
86EAA
102
}
102
{ACAD_REACTORS
330
1D92
102
}
330
1D92
100
AcDbVisualStyle
  2
Thicken
 70
    13
 71
     2
 72
     2
 73
     0
 90
        0
 40
-0.6
 41
-30.0
 62
     5
 63
     7
 74
     1
 91
        4
 64
     7
 65
   257
 75
     1
175
     1
 42
1.0
 92
       12
 66
     7
 43
1.0
 76
     1
 77
     6
 78
     2
 67
     7
 79
     5
170
     0
171
     0
290
     0
174
     0
 93
        1
 44
0.0
173
     0
291
     1
 45
0.0
1001
ACAD
1000
AcDbSavedByObjectVersion
1070
     0
  0
VISUALSTYLE
  5
A3B7
102
{ACAD_XDICTIONARY
360
86EB8
102
}
102
{ACAD_REACTORS
330
1D92
102
}
330
1D92
100
AcDbVisualStyle
  2
Wireframe
 70
     5
 71
     0
 72
     2
 73
     0
 90
        0
 40
-0.6
 41
-30.0
 62
     5
 63
     7
 74
     1
 91
        4
 64
     7
 65
   257
 75
     1
175
     1
 42
1.0
 92
        0
 66
   257
 43
1.0
 76
     1
 77
     6
 78
     2
 67
     7
 79
     3
170
     0
171
     0
290
     0
174
     0
 93
        1
 44
0.0
173
     0
291
     0
 45
0.0
1001
ACAD
1000
AcDbSavedByObjectVersion
1070
     0
  0
VISUALSTYLE
  5
A3BB
102
{ACAD_XDICTIONARY
360
86EC0
102
}
102
{ACAD_REACTORS
330
1D92
102
}
330
1D92
100
AcDbVisualStyle
  2
X-Ray
 70
    25
 71
     2
 72
     2
 73
     1
 90
        1
 40
0.5
 41
-30.0
 62
     5
 63
     7
 74
     1
 91
        0
 64
     7
 65
   257
 75
     1
175
     1
 42
1.0
 92
        8
 66
     7
 43
1.0
 76
     1
 77
     6
 78
     2
 67
     7
 79
     3
170
     0
171
     0
290
     0
174
     0
 93
       13
 44
0.0
173
     0
291
     0
 45
0.0
1001
ACAD
1000
AcDbSavedByObjectVersion
1070
     0
  0
DICTIONARYVAR
  5
32C7D
102
{ACAD_REACTORS
330
4C
102
}
330
4C
100
DictionaryVariables
280
     0
  1
1
  0
DICTIONARYVAR
  5
2569
102
{ACAD_REACTORS
330
4C
102
}
330
4C
100
DictionaryVariables
280
     0
  1
1:1
  0
DICTIONARYVAR
  5
2567
102
{ACAD_REACTORS
330
4C
102
}
330
4C
100
DictionaryVariables
280
     0
  1
STANDARD
  0
DICTIONARYVAR
  5
4D
102
{ACAD_REACTORS
330
4C
102
}
330
4C
100
DictionaryVariables
280
     0
  1
STANDARD
  0
DICTIONARYVAR
  5
31C1B
102
{ACAD_REACTORS
330
4C
102
}
330
4C
100
DictionaryVariables
280
     0
  1
Metric50
  0
DICTIONARYVAR
  5
31C1C
102
{ACAD_REACTORS
330
4C
102
}
330
4C
100
DictionaryVariables
280
     0
  1
Metric50
  0
DICTIONARYVAR
  5
83
102
{ACAD_REACTORS
330
4C
102
}
330
4C
100
DictionaryVariables
280
     0
  1
2
  0
DICTIONARYVAR
  5
82
102
{ACAD_REACTORS
330
4C
102
}
330
4C
100
DictionaryVariables
280
     0
  1
1
  0
DICTIONARYVAR
  5
597E
102
{ACAD_REACTORS
330
4C
102
}
330
4C
100
DictionaryVariables
280
     0
  1
0
  0
DICTIONARYVAR
  5
A45A
102
{ACAD_REACTORS
330
4C
102
}
330
4C
100
DictionaryVariables
280
     0
  1
1
  0
DICTIONARYVAR
  5
A45B
102
{ACAD_REACTORS
330
4C
102
}
330
4C
100
DictionaryVariables
280
     0
  1
15
  0
DICTIONARYVAR
  5
256A
102
{ACAD_REACTORS
330
4C
102
}
330
4C
100
DictionaryVariables
280
     0
  1
0
  0
DICTIONARYVAR
  5
597C
102
{ACAD_REACTORS
330
4C
102
}
330
4C
100
DictionaryVariables
280
     0
  1
1.000000
  0
DICTIONARYVAR
  5
2568
102
{ACAD_REACTORS
330
4C
102
}
330
4C
100
DictionaryVariables
280
     0
  1
0
  0
DICTIONARYVAR
  5
84
102
{ACAD_REACTORS
330
4C
102
}
330
4C
100
DictionaryVariables
280
     0
  1

  0
DICTIONARYVAR
  5
32C1C
102
{ACAD_REACTORS
330
4C
102
}
330
4C
100
DictionaryVariables
280
     0
  1
1
  0
DICTIONARYVAR
  5
597D
102
{ACAD_REACTORS
330
4C
102
}
330
4C
100
DictionaryVariables
280
     0
  1
127
  0
DICTIONARYVAR
  5
86E7C
102
{ACAD_REACTORS
330
4C
102
}
330
4C
100
DictionaryVariables
280
     0
  1
2
  0
DICTIONARY
  5
86E89
102
{ACAD_REACTORS
330
86E87
102
}
330
86E87
100
AcDbDictionary
281
     1
  0
DICTIONARY
  5
86E88
102
{ACAD_REACTORS
330
86E87
102
}
330
86E87
100
AcDbDictionary
281
     1
  3
8796086491680
350
86E82
  3
8796086491696
350
86E83
  3
8796086491712
350
86E84
  3
8796086491728
350
86E85
  3
8796086491744
350
86E86
  0
DICTIONARY
  5
535B6
102
{ACAD_REACTORS
330
535AD
102
}
330
535AD
100
AcDbDictionary
281
     1
  0
DICTIONARY
  5
86949
330
5795B
100
AcDbDictionary
280
     1
281
     1
  3
ACAD_XREC_ROUNDTRIP
360
86ED2
  0
DICTIONARY
  5
86945
330
31BF4
100
AcDbDictionary
280
     1
281
     1
  3
ACAD_XREC_ROUNDTRIP
360
86EC7
  0
DICTIONARY
  5
31D19
330
31D05
100
AcDbDictionary
280
     1
281
     1
  3
ACAD_XREC_ROUNDTRIP
360
86EC8
  0
DICTIONARY
  5
59CC
330
26
100
AcDbDictionary
280
     1
281
     1
  3
ACAD_XREC_ROUNDTRIP
360
86E8B
  0
DICTIONARY
  5
86E8E
330
1D90
100
AcDbDictionary
280
     1
281
     1
  3
ACAD_XREC_ROUNDTRIP
360
86E8F
  0
DICTIONARY
  5
86E8C
330
1D8F
100
AcDbDictionary
280
     1
281
     1
  3
ACAD_XREC_ROUNDTRIP
360
86E8D
  0
DICTIONARY
  5
86E90
330
1D91
100
AcDbDictionary
280
     1
281
     1
  3
ACAD_XREC_ROUNDTRIP
360
86E91
  0
DICTIONARY
  5
86947
330
57953
100
AcDbDictionary
280
     1
281
     1
  3
ACAD_XREC_ROUNDTRIP
360
86ED1
  0
DICTIONARY
  5
86943
330
31BF2
100
AcDbDictionary
280
     1
281
     1
  3
ACAD_XREC_ROUNDTRIP
360
86EC6
  0
DICTIONARY
  5
2563
330
1E
100
AcDbDictionary
280
     1
281
     1
  3
ACAD_ROUNDTRIP_2008_TABLESTYLE_CELLSTYLEMAP
360
86E7D
  3
ACAD_XREC_ROUNDTRIP
360
86E8A
  0
DICTIONARY
  5
86E9C
330
1D98
100
AcDbDictionary
280
     1
281
     1
  3
ACAD_XREC_ROUNDTRIP
360
86E9D
  0
DICTIONARY
  5
86EA0
330
1D9A
100
AcDbDictionary
280
     1
281
     1
  3
ACAD_XREC_ROUNDTRIP
360
86EA1
  0
DICTIONARY
  5
86E9E
330
1D99
100
AcDbDictionary
280
     1
281
     1
  3
ACAD_XREC_ROUNDTRIP
360
86E9F
  0
DICTIONARY
  5
86E9A
330
1D97
100
AcDbDictionary
280
     1
281
     1
  3
ACAD_XREC_ROUNDTRIP
360
86E9B
  0
DICTIONARY
  5
86EA8
330
1D9E
100
AcDbDictionary
280
     1
281
     1
  3
ACAD_XREC_ROUNDTRIP
360
86EA9
  0
DICTIONARY
  5
86EB0
330
1DA2
100
AcDbDictionary
280
     1
281
     1
  3
ACAD_XREC_ROUNDTRIP
360
86EB1
  0
DICTIONARY
  5
86EA2
330
1D9B
100
AcDbDictionary
280
     1
281
     1
  3
ACAD_XREC_ROUNDTRIP
360
86EA3
  0
DICTIONARY
  5
86EA6
330
1D9D
100
AcDbDictionary
280
     1
281
     1
  3
ACAD_XREC_ROUNDTRIP
360
86EA7
  0
DICTIONARY
  5
86EB6
330
58CB
100
AcDbDictionary
280
     1
281
     1
  3
ACAD_XREC_ROUNDTRIP
360
86EB7
  0
DICTIONARY
  5
86EAE
330
1DA1
100
AcDbDictionary
280
     1
281
     1
  3
ACAD_XREC_ROUNDTRIP
360
86EAF
  0
DICTIONARY
  5
86E92
330
1D93
100
AcDbDictionary
280
     1
281
     1
  3
ACAD_XREC_ROUNDTRIP
360
86E93
  0
DICTIONARY
  5
86E94
330
1D94
100
AcDbDictionary
280
     1
281
     1
  3
ACAD_XREC_ROUNDTRIP
360
86E95
  0
DICTIONARY
  5
86E96
330
1D95
100
AcDbDictionary
280
     1
281
     1
  3
ACAD_XREC_ROUNDTRIP
360
86E97
  0
DICTIONARY
  5
86E98
330
1D96
100
AcDbDictionary
280
     1
281
     1
  3
ACAD_XREC_ROUNDTRIP
360
86E99
  0
DICTIONARY
  5
86EBA
330
A3B8
100
AcDbDictionary
280
     1
281
     1
  3
ACAD_XREC_ROUNDTRIP
360
86EBB
  0
DICTIONARY
  5
86EB2
330
58C9
100
AcDbDictionary
280
     1
281
     1
  3
ACAD_XREC_ROUNDTRIP
360
86EB3
  0
DICTIONARY
  5
86EAC
330
1DA0
100
AcDbDictionary
280
     1
281
     1
  3
ACAD_XREC_ROUNDTRIP
360
86EAD
  0
DICTIONARY
  5
86EB4
330
58CA
100
AcDbDictionary
280
     1
281
     1
  3
ACAD_XREC_ROUNDTRIP
360
86EB5
  0
DICTIONARY
  5
86EA4
330
1D9C
100
AcDbDictionary
280
     1
281
     1
  3
ACAD_XREC_ROUNDTRIP
360
86EA5
  0
DICTIONARY
  5
86EC4
330
A3BD
100
AcDbDictionary
280
     1
281
     1
  3
ACAD_XREC_ROUNDTRIP
360
86EC5
  0
DICTIONARY
  5
86EC2
330
A3BC
100
AcDbDictionary
280
     1
281
     1
  3
ACAD_XREC_ROUNDTRIP
360
86EC3
  0
DICTIONARY
  5
86EBC
330
A3B9
100
AcDbDictionary
280
     1
281
     1
  3
ACAD_XREC_ROUNDTRIP
360
86EBD
  0
DICTIONARY
  5
86EBE
330
A3BA
100
AcDbDictionary
280
     1
281
     1
  3
ACAD_XREC_ROUNDTRIP
360
86EBF
  0
DICTIONARY
  5
86EAA
330
1D9F
100
AcDbDictionary
280
     1
281
     1
  3
ACAD_XREC_ROUNDTRIP
360
86EAB
  0
DICTIONARY
  5
86EB8
330
A3B7
100
AcDbDictionary
280
     1
281
     1
  3
ACAD_XREC_ROUNDTRIP
360
86EB9
  0
DICTIONARY
  5
86EC0
330
A3BB
100
AcDbDictionary
280
     1
281
     1
  3
ACAD_XREC_ROUNDTRIP
360
86EC1
  0
XRECORD
  5
86E82
102
{ACAD_REACTORS
330
86E88
102
}
330
86E88
100
AcDbXrecord
280
     1
  1
AcDb_Thumbnail_Schema
102
{ATTRRECORD
341
86E83
  2
AcDbDs::TreatedAsObjectData
280
     1
291
     1
102
ATTRRECORD}
102
{ATTRRECORD
341
86E84
  2
AcDbDs::Legacy
280
     1
291
     1
102
ATTRRECORD}
  2
AcDbDs::ID
280
    10
 91
        8
102
{ATTRRECORD
341
86E85
  2
AcDs:Indexable
280
     1
291
     1
102
ATTRRECORD}
102
{ATTRRECORD
341
86E86
  2
AcDbDs::HandleAttribute
280
     7
282
     1
102
ATTRRECORD}
  2
Thumbnail_Data
280
    15
 91
        0
  0
XRECORD
  5
86E83
102
{ACAD_REACTORS
330
86E88
102
}
330
86E88
100
AcDbXrecord
280
     1
  1
AcDbDs::TreatedAsObjectDataSchema
  2
AcDbDs::TreatedAsObjectData
280
     1
 91
        0
  0
XRECORD
  5
86E84
102
{ACAD_REACTORS
330
86E88
102
}
330
86E88
100
AcDbXrecord
280
     1
  1
AcDbDs::LegacySchema
  2
AcDbDs::Legacy
280
     1
 91
        0
  0
XRECORD
  5
86E85
102
{ACAD_REACTORS
330
86E88
102
}
330
86E88
100
AcDbXrecord
280
     1
  1
AcDbDs::IndexedPropertySchema
  2
AcDs:Indexable
280
     1
 91
        0
  0
XRECORD
  5
86E86
102
{ACAD_REACTORS
330
86E88
102
}
330
86E88
100
AcDbXrecord
280
     1
  1
AcDbDs::HandleAttributeSchema
  2
AcDbDs::HandleAttribute
280
     7
 91
        1
284
     1
  0
XRECORD
  5
86ED2
102
{ACAD_REACTORS
330
86949
102
}
330
86949
100
AcDbXrecord
280
     1
102
DISPLAYNAME
  1
Imperial24
102
FLAGS
 90
        0
  0
XRECORD
  5
86EC7
102
{ACAD_REACTORS
330
86945
102
}
330
86945
100
AcDbXrecord
280
     1
102
DISPLAYNAME
  1
Metric50
102
FLAGS
 90
        0
  0
XRECORD
  5
86EC8
102
{ACAD_REACTORS
330
31D19
102
}
330
31D19
100
AcDbXrecord
280
     1
102
SHADEPLOT
 70
     0
102
SHADEPLOTRESLEVEL
 70
     2
102
SHADEPLOTCUSTOMDPI
 70
   300
  0
XRECORD
  5
86E8B
102
{ACAD_REACTORS
330
59CC
102
}
330
59CC
100
AcDbXrecord
280
     1
102
SHADEPLOT
 70
     0
102
SHADEPLOTRESLEVEL
 70
     2
102
SHADEPLOTCUSTOMDPI
 70
   300
  0
XRECORD
  5
86E8F
102
{ACAD_REACTORS
330
86E8E
102
}
330
86E8E
100
AcDbXrecord
280
     1
102
MATERIAL
148
0.0
149
0.0
149
0.0
 93
        0
 94
       63
282
     0
 72
     1
 77
     1
171
     1
175
     1
179
     1
273
     0
  0
XRECORD
  5
86E8D
102
{ACAD_REACTORS
330
86E8C
102
}
330
86E8C
100
AcDbXrecord
280
     1
102
MATERIAL
148
0.0
149
0.0
149
0.0
 93
        0
 94
       63
282
     0
 72
     1
 77
     1
171
     1
175
     1
179
     1
273
     0
  0
XRECORD
  5
86E91
102
{ACAD_REACTORS
330
86E90
102
}
330
86E90
100
AcDbXrecord
280
     1
102
MATERIAL
148
0.0
149
0.0
149
0.0
 93
        0
 94
       63
282
     0
 72
     1
 77
     1
171
     1
175
     1
179
     1
273
     0
  0
XRECORD
  5
86ED1
102
{ACAD_REACTORS
330
86947
102
}
330
86947
100
AcDbXrecord
280
     1
102
DISPLAYNAME
  1
Imperial24
102
FLAGS
 90
        0
  0
XRECORD
  5
86EC6
102
{ACAD_REACTORS
330
86943
102
}
330
86943
100
AcDbXrecord
280
     1
102
DISPLAYNAME
  1
Metric50
102
FLAGS
 90
        0
  0
CELLSTYLEMAP
  5
86E7D
102
{ACAD_REACTORS
330
2563
102
}
330
2563
100
AcDbCellStyleMap
 90
        3
300
CELLSTYLE
  1
TABLEFORMAT_BEGIN
 90
        5
170
     1
 91
        0
 92
    32768
 62
   257
 93
        1
300
CONTENTFORMAT
  1
CONTENTFORMAT_BEGIN
 90
        0
 91
        0
 92
        4
 93
        0
300

 40
0.0
140
1.0
 94
        5
 62
     0
340
11
144
6.0
309
CONTENTFORMAT_END
171
     1
301
MARGIN
  1
CELLMARGIN_BEGIN
 40
1.5
 40
1.5
 40
1.5
 40
1.5
 40
0.18
 40
0.18
309
CELLMARGIN_END
 94
        6
 95
        1
302
GRIDFORMAT
  1
GRIDFORMAT_BEGIN
 90
        0
 91
        1
 62
     0
 92
       -2
340
0
 93
        0
 40
0.045
309
GRIDFORMAT_END
 95
        2
302
GRIDFORMAT
  1
GRIDFORMAT_BEGIN
 90
        0
 91
        1
 62
     0
 92
       -2
340
0
 93
        0
 40
0.045
309
GRIDFORMAT_END
 95
        4
302
GRIDFORMAT
  1
GRIDFORMAT_BEGIN
 90
        0
 91
        1
 62
     0
 92
       -2
340
0
 93
        0
 40
0.045
309
GRIDFORMAT_END
 95
        8
302
GRIDFORMAT
  1
GRIDFORMAT_BEGIN
 90
        0
 91
        1
 62
     0
 92
       -2
340
0
 93
        0
 40
0.045
309
GRIDFORMAT_END
 95
       16
302
GRIDFORMAT
  1
GRIDFORMAT_BEGIN
 90
        0
 91
        1
 62
     0
 92
       -2
340
0
 93
        0
 40
0.045
309
GRIDFORMAT_END
 95
       32
302
GRIDFORMAT
  1
GRIDFORMAT_BEGIN
 90
        0
 91
        1
 62
     0
 92
       -2
340
0
 93
        0
 40
0.045
309
GRIDFORMAT_END
309
TABLEFORMAT_END
  1
CELLSTYLE_BEGIN
 90
        1
 91
        1
300
_TITLE
309
CELLSTYLE_END
300
CELLSTYLE
  1
TABLEFORMAT_BEGIN
 90
        5
170
     1
 91
        0
 92
        0
 62
   257
 93
        1
300
CONTENTFORMAT
  1
CONTENTFORMAT_BEGIN
 90
        0
 91
        0
 92
        4
 93
        0
300

 40
0.0
140
1.0
 94
        5
 62
     0
340
11
144
4.5
309
CONTENTFORMAT_END
171
     1
301
MARGIN
  1
CELLMARGIN_BEGIN
 40
1.5
 40
1.5
 40
1.5
 40
1.5
 40
0.18
 40
0.18
309
CELLMARGIN_END
 94
        6
 95
        1
302
GRIDFORMAT
  1
GRIDFORMAT_BEGIN
 90
        0
 91
        1
 62
     0
 92
       -2
340
0
 93
        0
 40
0.045
309
GRIDFORMAT_END
 95
        2
302
GRIDFORMAT
  1
GRIDFORMAT_BEGIN
 90
        0
 91
        1
 62
     0
 92
       -2
340
0
 93
        0
 40
0.045
309
GRIDFORMAT_END
 95
        4
302
GRIDFORMAT
  1
GRIDFORMAT_BEGIN
 90
        0
 91
        1
 62
     0
 92
       -2
340
0
 93
        0
 40
0.045
309
GRIDFORMAT_END
 95
        8
302
GRIDFORMAT
  1
GRIDFORMAT_BEGIN
 90
        0
 91
        1
 62
     0
 92
       -2
340
0
 93
        0
 40
0.045
309
GRIDFORMAT_END
 95
       16
302
GRIDFORMAT
  1
GRIDFORMAT_BEGIN
 90
        0
 91
        1
 62
     0
 92
       -2
340
0
 93
        0
 40
0.045
309
GRIDFORMAT_END
 95
       32
302
GRIDFORMAT
  1
GRIDFORMAT_BEGIN
 90
        0
 91
        1
 62
     0
 92
       -2
340
0
 93
        0
 40
0.045
309
GRIDFORMAT_END
309
TABLEFORMAT_END
  1
CELLSTYLE_BEGIN
 90
        2
 91
        1
300
_HEADER
309
CELLSTYLE_END
300
CELLSTYLE
  1
TABLEFORMAT_BEGIN
 90
        5
170
     1
 91
        0
 92
        0
 62
   257
 93
        1
300
CONTENTFORMAT
  1
CONTENTFORMAT_BEGIN
 90
        0
 91
        0
 92
        4
 93
        0
300

 40
0.0
140
1.0
 94
        2
 62
     0
340
11
144
4.5
309
CONTENTFORMAT_END
171
     1
301
MARGIN
  1
CELLMARGIN_BEGIN
 40
1.5
 40
1.5
 40
1.5
 40
1.5
 40
0.18
 40
0.18
309
CELLMARGIN_END
 94
        6
 95
        1
302
GRIDFORMAT
  1
GRIDFORMAT_BEGIN
 90
        0
 91
        1
 62
     0
 92
       -2
340
0
 93
        0
 40
0.045
309
GRIDFORMAT_END
 95
        2
302
GRIDFORMAT
  1
GRIDFORMAT_BEGIN
 90
        0
 91
        1
 62
     0
 92
       -2
340
0
 93
        0
 40
0.045
309
GRIDFORMAT_END
 95
        4
302
GRIDFORMAT
  1
GRIDFORMAT_BEGIN
 90
        0
 91
        1
 62
     0
 92
       -2
340
0
 93
        0
 40
0.045
309
GRIDFORMAT_END
 95
        8
302
GRIDFORMAT
  1
GRIDFORMAT_BEGIN
 90
        0
 91
        1
 62
     0
 92
       -2
340
0
 93
        0
 40
0.045
309
GRIDFORMAT_END
 95
       16
302
GRIDFORMAT
  1
GRIDFORMAT_BEGIN
 90
        0
 91
        1
 62
     0
 92
       -2
340
0
 93
        0
 40
0.045
309
GRIDFORMAT_END
 95
       32
302
GRIDFORMAT
  1
GRIDFORMAT_BEGIN
 90
        0
 91
        1
 62
     0
 92
       -2
340
0
 93
        0
 40
0.045
309
GRIDFORMAT_END
309
TABLEFORMAT_END
  1
CELLSTYLE_BEGIN
 90
        3
 91
        2
300
_DATA
309
CELLSTYLE_END
  0
XRECORD
  5
86E8A
102
{ACAD_REACTORS
330
2563
102
}
330
2563
100
AcDbXrecord
280
     1
102
ACAD_ROUNDTRIP_PRE2007_TABLESTYLE
 90
        4
 91
        0
  1

 92
        4
 93
        0
  2

 94
        4
 95
        0
  3

  0
XRECORD
  5
86E9D
102
{ACAD_REACTORS
330
86E9C
102
}
330
86E9C
100
AcDbXrecord
280
     1
102
RTVSPost2010Prop28
280
     1
102
RTVSPost2010PropOp28
 70
     1
102
RTVSPost2010Prop29
280
     1
102
RTVSPost2010PropOp29
 70
     1
102
RTVSPost2010Prop30
280
     0
102
RTVSPost2010PropOp30
 70
     1
102
RTVSPost2010Prop31
280
     0
102
RTVSPost2010PropOp31
 70
     1
102
RTVSPost2010Prop32
280
     0
102
RTVSPost2010PropOp32
 70
     1
102
RTVSPost2010Prop33
280
     0
102
RTVSPost2010PropOp33
 70
     1
102
RTVSPost2010Prop34
280
     0
102
RTVSPost2010PropOp34
 70
     1
102
RTVSPost2010Prop35
280
     0
102
RTVSPost2010PropOp35
 70
     1
102
RTVSPost2010Prop36
280
     0
102
RTVSPost2010PropOp36
 70
     1
102
RTVSPost2010Prop37
 90
       50
102
RTVSPost2010PropOp37
 70
     1
102
RTVSPost2010Prop38
140
0.0
102
RTVSPost2010PropOp38
 70
     1
102
RTVSPost2010Prop39
140
1.0
102
RTVSPost2010PropOp39
 70
     1
102
RTVSPost2010Prop40
 90
        0
102
RTVSPost2010PropOp40
 70
     1
102
RTVSPost2010Prop41ColorIndex
 90
       18
102
RTVSPost2010Prop41ColorRGB
 90
        0
102
RTVSPost2010PropOp41
 70
     1
102
RTVSPost2010Prop42
 90
       50
102
RTVSPost2010PropOp42
 70
     1
102
RTVSPost2010Prop43
 90
        3
102
RTVSPost2010PropOp43
 70
     1
102
RTVSPost2010Prop44ColorIndex
 90
        5
102
RTVSPost2010Prop44ColorRGB
 90
      255
102
RTVSPost2010PropOp44
 70
     1
102
RTVSPost2010Prop45
280
     0
102
RTVSPost2010PropOp45
 70
     1
102
RTVSPost2010Prop46
 90
       50
102
RTVSPost2010PropOp46
 70
     1
102
RTVSPost2010Prop47
 90
       50
102
RTVSPost2010PropOp47
 70
     1
102
RTVSPost2010Prop48
 90
       50
102
RTVSPost2010PropOp48
 70
     1
102
RTVSPost2010Prop49
280
     0
102
RTVSPost2010PropOp49
 70
     1
102
RTVSPost2010Prop50
 90
       50
102
RTVSPost2010PropOp50
 70
     1
102
RTVSPost2010Prop51ColorIndex
 90
      256
102
RTVSPost2010Prop51ColorRGB
 90
-16777216
102
RTVSPost2010PropOp51
 70
     0
102
RTVSPost2010Prop52
140
1.0
102
RTVSPost2010PropOp52
 70
     0
102
RTVSPost2010Prop53
 90
        2
102
RTVSPost2010PropOp53
 70
     1
102
RTVSPost2010Prop54
  1
strokes_ogs.tif
102
RTVSPost2010PropOp54
 70
     1
102
RTVSPost2010Prop55
280
     0
102
RTVSPost2010PropOp55
 70
     1
102
RTVSPost2010Prop56
140
1.0
102
RTVSPost2010PropOp56
 70
     1
102
RTVSPost2010Prop57
140
1.0
102
RTVSPost2010PropOp57
 70
     1
102
RTVSPropertyOp0
 70
     1
102
RTVSPropertyOp1
 70
     1
102
RTVSPropertyOp2
 70
     1
102
RTVSPropertyOp3
 70
     1
102
RTVSPropertyOp4
 70
     1
102
RTVSPropertyOp5
 70
     1
102
RTVSPropertyOp6
 70
     1
102
RTVSPropertyOp7
 70
     1
102
RTVSPropertyOp8
 70
     1
102
RTVSPropertyOp9
 70
     1
102
RTVSPropertyOp10
 70
     1
102
RTVSPropertyOp11
 70
     1
102
RTVSPropertyOp12
 70
     1
102
RTVSPropertyOp13
 70
     1
102
RTVSPropertyOp14
 70
     1
102
RTVSPropertyOp15
 70
     1
102
RTVSPropertyOp16
 70
     1
102
RTVSPropertyOp17
 70
     1
102
RTVSPropertyOp18
 70
     1
102
RTVSPropertyOp19
 70
     1
102
RTVSPropertyOp20
 70
     1
102
RTVSPropertyOp21
 70
     1
102
RTVSPropertyOp22
 70
     1
102
RTVSPropertyOp23
 70
     1
102
RTVSPropertyOp24
 70
     1
102
RTVSPropertyOp25
 70
     1
102
RTVSPropertyOp26
 70
     1
102
RTVSPropertyOp27
 70
     1
102
RTVSPropertyOp28
 70
     1
102
RTVSPropertyOp29
 70
     1
102
RTVSPropertyOp30
 70
     1
102
RTVSPropertyOp31
 70
     1
102
RTVSPropertyOp32
 70
     1
102
RTVSPropertyOp33
 70
     1
102
RTVSPropertyOp34
 70
     1
102
RTVSPropertyOp35
 70
     1
102
RTVSPropertyOp36
 70
     1
102
RTVSPropertyOp37
 70
     1
102
RTVSPropertyOp38
 70
     1
102
RTVSPropertyOp39
 70
     1
102
RTVSPropertyOp40
 70
     1
102
RTVSPropertyOp41
 70
     1
102
RTVSPropertyOp42
 70
     1
102
RTVSPropertyOp43
 70
     1
102
RTVSPropertyOp44
 70
     1
102
RTVSPropertyOp45
 70
     1
102
RTVSPropertyOp46
 70
     1
102
RTVSPropertyOp47
 70
     1
102
RTVSPropertyOp48
 70
     1
102
RTVSPropertyOp49
 70
     1
102
RTVSPropertyOp50
 70
     1
102
RTVSPropertyOp51
 70
     0
102
RTVSPropertyOp52
 70
     0
102
RTVSPropertyOp53
 70
     1
102
RTVSPropertyOp54
 70
     1
102
RTVSPropertyOp55
 70
     1
102
RTVSPropertyOp56
 70
     1
102
RTVSPropertyOp57
 70
     1
102
RTVSPropertyOp58
 70
     1
102
RTVSPropertyOp59
 70
     1
102
RTVSPropertyOp60
 70
     1
102
RTVSPropertyOp61
 70
     1
102
RTVSPropertyOp62
 70
     1
  0
XRECORD
  5
86EA1
102
{ACAD_REACTORS
330
86EA0
102
}
330
86EA0
100
AcDbXrecord
280
     1
102
RTVSPost2010Prop28
280
     0
102
RTVSPost2010PropOp28
 70
     1
102
RTVSPost2010Prop29
280
     1
102
RTVSPost2010PropOp29
 70
     1
102
RTVSPost2010Prop30
280
     1
102
RTVSPost2010PropOp30
 70
     1
102
RTVSPost2010Prop31
280
     0
102
RTVSPost2010PropOp31
 70
     1
102
RTVSPost2010Prop32
280
     0
102
RTVSPost2010PropOp32
 70
     1
102
RTVSPost2010Prop33
280
     0
102
RTVSPost2010PropOp33
 70
     1
102
RTVSPost2010Prop34
280
     0
102
RTVSPost2010PropOp34
 70
     1
102
RTVSPost2010Prop35
280
     0
102
RTVSPost2010PropOp35
 70
     1
102
RTVSPost2010Prop36
280
     0
102
RTVSPost2010PropOp36
 70
     1
102
RTVSPost2010Prop37
 90
       50
102
RTVSPost2010PropOp37
 70
     1
102
RTVSPost2010Prop38
140
0.0
102
RTVSPost2010PropOp38
 70
     1
102
RTVSPost2010Prop39
140
1.0
102
RTVSPost2010PropOp39
 70
     1
102
RTVSPost2010Prop40
 90
        0
102
RTVSPost2010PropOp40
 70
     1
102
RTVSPost2010Prop41ColorIndex
 90
       18
102
RTVSPost2010Prop41ColorRGB
 90
        0
102
RTVSPost2010PropOp41
 70
     1
102
RTVSPost2010Prop42
 90
       50
102
RTVSPost2010PropOp42
 70
     1
102
RTVSPost2010Prop43
 90
        3
102
RTVSPost2010PropOp43
 70
     1
102
RTVSPost2010Prop44ColorIndex
 90
        5
102
RTVSPost2010Prop44ColorRGB
 90
      255
102
RTVSPost2010PropOp44
 70
     1
102
RTVSPost2010Prop45
280
     0
102
RTVSPost2010PropOp45
 70
     1
102
RTVSPost2010Prop46
 90
       50
102
RTVSPost2010PropOp46
 70
     1
102
RTVSPost2010Prop47
 90
       50
102
RTVSPost2010PropOp47
 70
     1
102
RTVSPost2010Prop48
 90
       50
102
RTVSPost2010PropOp48
 70
     1
102
RTVSPost2010Prop49
280
     0
102
RTVSPost2010PropOp49
 70
     1
102
RTVSPost2010Prop50
 90
       50
102
RTVSPost2010PropOp50
 70
     1
102
RTVSPost2010Prop51ColorIndex
 90
      256
102
RTVSPost2010Prop51ColorRGB
 90
-16777216
102
RTVSPost2010PropOp51
 70
     0
102
RTVSPost2010Prop52
140
1.0
102
RTVSPost2010PropOp52
 70
     0
102
RTVSPost2010Prop53
 90
        2
102
RTVSPost2010PropOp53
 70
     1
102
RTVSPost2010Prop54
  1
strokes_ogs.tif
102
RTVSPost2010PropOp54
 70
     1
102
RTVSPost2010Prop55
280
     0
102
RTVSPost2010PropOp55
 70
     1
102
RTVSPost2010Prop56
140
1.0
102
RTVSPost2010PropOp56
 70
     1
102
RTVSPost2010Prop57
140
1.0
102
RTVSPost2010PropOp57
 70
     1
102
RTVSPropertyOp0
 70
     1
102
RTVSPropertyOp1
 70
     1
102
RTVSPropertyOp2
 70
     1
102
RTVSPropertyOp3
 70
     1
102
RTVSPropertyOp4
 70
     1
102
RTVSPropertyOp5
 70
     1
102
RTVSPropertyOp6
 70
     1
102
RTVSPropertyOp7
 70
     1
102
RTVSPropertyOp8
 70
     1
102
RTVSPropertyOp9
 70
     1
102
RTVSPropertyOp10
 70
     1
102
RTVSPropertyOp11
 70
     1
102
RTVSPropertyOp12
 70
     1
102
RTVSPropertyOp13
 70
     1
102
RTVSPropertyOp14
 70
     1
102
RTVSPropertyOp15
 70
     1
102
RTVSPropertyOp16
 70
     1
102
RTVSPropertyOp17
 70
     1
102
RTVSPropertyOp18
 70
     1
102
RTVSPropertyOp19
 70
     1
102
RTVSPropertyOp20
 70
     1
102
RTVSPropertyOp21
 70
     1
102
RTVSPropertyOp22
 70
     1
102
RTVSPropertyOp23
 70
     1
102
RTVSPropertyOp24
 70
     1
102
RTVSPropertyOp25
 70
     1
102
RTVSPropertyOp26
 70
     1
102
RTVSPropertyOp27
 70
     1
102
RTVSPropertyOp28
 70
     1
102
RTVSPropertyOp29
 70
     1
102
RTVSPropertyOp30
 70
     1
102
RTVSPropertyOp31
 70
     1
102
RTVSPropertyOp32
 70
     1
102
RTVSPropertyOp33
 70
     1
102
RTVSPropertyOp34
 70
     1
102
RTVSPropertyOp35
 70
     1
102
RTVSPropertyOp36
 70
     1
102
RTVSPropertyOp37
 70
     1
102
RTVSPropertyOp38
 70
     1
102
RTVSPropertyOp39
 70
     1
102
RTVSPropertyOp40
 70
     1
102
RTVSPropertyOp41
 70
     1
102
RTVSPropertyOp42
 70
     1
102
RTVSPropertyOp43
 70
     1
102
RTVSPropertyOp44
 70
     1
102
RTVSPropertyOp45
 70
     1
102
RTVSPropertyOp46
 70
     1
102
RTVSPropertyOp47
 70
     1
102
RTVSPropertyOp48
 70
     1
102
RTVSPropertyOp49
 70
     1
102
RTVSPropertyOp50
 70
     1
102
RTVSPropertyOp51
 70
     0
102
RTVSPropertyOp52
 70
     0
102
RTVSPropertyOp53
 70
     1
102
RTVSPropertyOp54
 70
     1
102
RTVSPropertyOp55
 70
     1
102
RTVSPropertyOp56
 70
     1
102
RTVSPropertyOp57
 70
     1
102
RTVSPropertyOp58
 70
     1
102
RTVSPropertyOp59
 70
     1
102
RTVSPropertyOp60
 70
     1
102
RTVSPropertyOp61
 70
     1
102
RTVSPropertyOp62
 70
     1
  0
XRECORD
  5
86E9F
102
{ACAD_REACTORS
330
86E9E
102
}
330
86E9E
100
AcDbXrecord
280
     1
102
RTVSPost2010Prop28
280
     0
102
RTVSPost2010PropOp28
 70
     1
102
RTVSPost2010Prop29
280
     1
102
RTVSPost2010PropOp29
 70
     1
102
RTVSPost2010Prop30
280
     1
102
RTVSPost2010PropOp30
 70
     1
102
RTVSPost2010Prop31
280
     0
102
RTVSPost2010PropOp31
 70
     1
102
RTVSPost2010Prop32
280
     0
102
RTVSPost2010PropOp32
 70
     1
102
RTVSPost2010Prop33
280
     0
102
RTVSPost2010PropOp33
 70
     1
102
RTVSPost2010Prop34
280
     0
102
RTVSPost2010PropOp34
 70
     1
102
RTVSPost2010Prop35
280
     0
102
RTVSPost2010PropOp35
 70
     1
102
RTVSPost2010Prop36
280
     0
102
RTVSPost2010PropOp36
 70
     1
102
RTVSPost2010Prop37
 90
       50
102
RTVSPost2010PropOp37
 70
     1
102
RTVSPost2010Prop38
140
0.0
102
RTVSPost2010PropOp38
 70
     1
102
RTVSPost2010Prop39
140
1.0
102
RTVSPost2010PropOp39
 70
     1
102
RTVSPost2010Prop40
 90
        0
102
RTVSPost2010PropOp40
 70
     1
102
RTVSPost2010Prop41ColorIndex
 90
       18
102
RTVSPost2010Prop41ColorRGB
 90
        0
102
RTVSPost2010PropOp41
 70
     1
102
RTVSPost2010Prop42
 90
       50
102
RTVSPost2010PropOp42
 70
     1
102
RTVSPost2010Prop43
 90
        3
102
RTVSPost2010PropOp43
 70
     1
102
RTVSPost2010Prop44ColorIndex
 90
        5
102
RTVSPost2010Prop44ColorRGB
 90
      255
102
RTVSPost2010PropOp44
 70
     1
102
RTVSPost2010Prop45
280
     0
102
RTVSPost2010PropOp45
 70
     1
102
RTVSPost2010Prop46
 90
       50
102
RTVSPost2010PropOp46
 70
     1
102
RTVSPost2010Prop47
 90
       50
102
RTVSPost2010PropOp47
 70
     1
102
RTVSPost2010Prop48
 90
       50
102
RTVSPost2010PropOp48
 70
     1
102
RTVSPost2010Prop49
280
     0
102
RTVSPost2010PropOp49
 70
     1
102
RTVSPost2010Prop50
 90
       50
102
RTVSPost2010PropOp50
 70
     1
102
RTVSPost2010Prop51ColorIndex
 90
      256
102
RTVSPost2010Prop51ColorRGB
 90
-16777216
102
RTVSPost2010PropOp51
 70
     0
102
RTVSPost2010Prop52
140
1.0
102
RTVSPost2010PropOp52
 70
     0
102
RTVSPost2010Prop53
 90
        2
102
RTVSPost2010PropOp53
 70
     1
102
RTVSPost2010Prop54
  1
strokes_ogs.tif
102
RTVSPost2010PropOp54
 70
     1
102
RTVSPost2010Prop55
280
     0
102
RTVSPost2010PropOp55
 70
     1
102
RTVSPost2010Prop56
140
1.0
102
RTVSPost2010PropOp56
 70
     1
102
RTVSPost2010Prop57
140
1.0
102
RTVSPost2010PropOp57
 70
     1
102
RTVSPropertyOp0
 70
     1
102
RTVSPropertyOp1
 70
     1
102
RTVSPropertyOp2
 70
     1
102
RTVSPropertyOp3
 70
     1
102
RTVSPropertyOp4
 70
     1
102
RTVSPropertyOp5
 70
     1
102
RTVSPropertyOp6
 70
     1
102
RTVSPropertyOp7
 70
     1
102
RTVSPropertyOp8
 70
     1
102
RTVSPropertyOp9
 70
     1
102
RTVSPropertyOp10
 70
     1
102
RTVSPropertyOp11
 70
     1
102
RTVSPropertyOp12
 70
     1
102
RTVSPropertyOp13
 70
     1
102
RTVSPropertyOp14
 70
     1
102
RTVSPropertyOp15
 70
     1
102
RTVSPropertyOp16
 70
     1
102
RTVSPropertyOp17
 70
     1
102
RTVSPropertyOp18
 70
     1
102
RTVSPropertyOp19
 70
     1
102
RTVSPropertyOp20
 70
     1
102
RTVSPropertyOp21
 70
     1
102
RTVSPropertyOp22
 70
     1
102
RTVSPropertyOp23
 70
     1
102
RTVSPropertyOp24
 70
     1
102
RTVSPropertyOp25
 70
     1
102
RTVSPropertyOp26
 70
     1
102
RTVSPropertyOp27
 70
     1
102
RTVSPropertyOp28
 70
     1
102
RTVSPropertyOp29
 70
     1
102
RTVSPropertyOp30
 70
     1
102
RTVSPropertyOp31
 70
     1
102
RTVSPropertyOp32
 70
     1
102
RTVSPropertyOp33
 70
     1
102
RTVSPropertyOp34
 70
     1
102
RTVSPropertyOp35
 70
     1
102
RTVSPropertyOp36
 70
     1
102
RTVSPropertyOp37
 70
     1
102
RTVSPropertyOp38
 70
     1
102
RTVSPropertyOp39
 70
     1
102
RTVSPropertyOp40
 70
     1
102
RTVSPropertyOp41
 70
     1
102
RTVSPropertyOp42
 70
     1
102
RTVSPropertyOp43
 70
     1
102
RTVSPropertyOp44
 70
     1
102
RTVSPropertyOp45
 70
     1
102
RTVSPropertyOp46
 70
     1
102
RTVSPropertyOp47
 70
     1
102
RTVSPropertyOp48
 70
     1
102
RTVSPropertyOp49
 70
     1
102
RTVSPropertyOp50
 70
     1
102
RTVSPropertyOp51
 70
     0
102
RTVSPropertyOp52
 70
     0
102
RTVSPropertyOp53
 70
     1
102
RTVSPropertyOp54
 70
     1
102
RTVSPropertyOp55
 70
     1
102
RTVSPropertyOp56
 70
     1
102
RTVSPropertyOp57
 70
     1
102
RTVSPropertyOp58
 70
     1
102
RTVSPropertyOp59
 70
     1
102
RTVSPropertyOp60
 70
     1
102
RTVSPropertyOp61
 70
     1
102
RTVSPropertyOp62
 70
     1
  0
XRECORD
  5
86E9B
102
{ACAD_REACTORS
330
86E9A
102
}
330
86E9A
100
AcDbXrecord
280
     1
102
RTVSPost2010Prop28
280
     0
102
RTVSPost2010PropOp28
 70
     1
102
RTVSPost2010Prop29
280
     1
102
RTVSPost2010PropOp29
 70
     1
102
RTVSPost2010Prop30
280
     1
102
RTVSPost2010PropOp30
 70
     1
102
RTVSPost2010Prop31
280
     0
102
RTVSPost2010PropOp31
 70
     1
102
RTVSPost2010Prop32
280
     0
102
RTVSPost2010PropOp32
 70
     1
102
RTVSPost2010Prop33
280
     0
102
RTVSPost2010PropOp33
 70
     1
102
RTVSPost2010Prop34
280
     0
102
RTVSPost2010PropOp34
 70
     1
102
RTVSPost2010Prop35
280
     0
102
RTVSPost2010PropOp35
 70
     1
102
RTVSPost2010Prop36
280
     0
102
RTVSPost2010PropOp36
 70
     1
102
RTVSPost2010Prop37
 90
       50
102
RTVSPost2010PropOp37
 70
     1
102
RTVSPost2010Prop38
140
0.0
102
RTVSPost2010PropOp38
 70
     1
102
RTVSPost2010Prop39
140
1.0
102
RTVSPost2010PropOp39
 70
     1
102
RTVSPost2010Prop40
 90
        0
102
RTVSPost2010PropOp40
 70
     1
102
RTVSPost2010Prop41ColorIndex
 90
       18
102
RTVSPost2010Prop41ColorRGB
 90
        0
102
RTVSPost2010PropOp41
 70
     1
102
RTVSPost2010Prop42
 90
       50
102
RTVSPost2010PropOp42
 70
     1
102
RTVSPost2010Prop43
 90
        3
102
RTVSPost2010PropOp43
 70
     1
102
RTVSPost2010Prop44ColorIndex
 90
        5
102
RTVSPost2010Prop44ColorRGB
 90
      255
102
RTVSPost2010PropOp44
 70
     1
102
RTVSPost2010Prop45
280
     0
102
RTVSPost2010PropOp45
 70
     1
102
RTVSPost2010Prop46
 90
       50
102
RTVSPost2010PropOp46
 70
     1
102
RTVSPost2010Prop47
 90
       50
102
RTVSPost2010PropOp47
 70
     1
102
RTVSPost2010Prop48
 90
       50
102
RTVSPost2010PropOp48
 70
     1
102
RTVSPost2010Prop49
280
     0
102
RTVSPost2010PropOp49
 70
     1
102
RTVSPost2010Prop50
 90
       50
102
RTVSPost2010PropOp50
 70
     1
102
RTVSPost2010Prop51ColorIndex
 90
      256
102
RTVSPost2010Prop51ColorRGB
 90
-16777216
102
RTVSPost2010PropOp51
 70
     0
102
RTVSPost2010Prop52
140
1.0
102
RTVSPost2010PropOp52
 70
     0
102
RTVSPost2010Prop53
 90
        2
102
RTVSPost2010PropOp53
 70
     1
102
RTVSPost2010Prop54
  1
strokes_ogs.tif
102
RTVSPost2010PropOp54
 70
     1
102
RTVSPost2010Prop55
280
     0
102
RTVSPost2010PropOp55
 70
     1
102
RTVSPost2010Prop56
140
1.0
102
RTVSPost2010PropOp56
 70
     1
102
RTVSPost2010Prop57
140
1.0
102
RTVSPost2010PropOp57
 70
     1
102
RTVSPropertyOp0
 70
     1
102
RTVSPropertyOp1
 70
     1
102
RTVSPropertyOp2
 70
     1
102
RTVSPropertyOp3
 70
     1
102
RTVSPropertyOp4
 70
     1
102
RTVSPropertyOp5
 70
     1
102
RTVSPropertyOp6
 70
     1
102
RTVSPropertyOp7
 70
     1
102
RTVSPropertyOp8
 70
     1
102
RTVSPropertyOp9
 70
     1
102
RTVSPropertyOp10
 70
     1
102
RTVSPropertyOp11
 70
     1
102
RTVSPropertyOp12
 70
     1
102
RTVSPropertyOp13
 70
     1
102
RTVSPropertyOp14
 70
     1
102
RTVSPropertyOp15
 70
     1
102
RTVSPropertyOp16
 70
     1
102
RTVSPropertyOp17
 70
     1
102
RTVSPropertyOp18
 70
     1
102
RTVSPropertyOp19
 70
     1
102
RTVSPropertyOp20
 70
     1
102
RTVSPropertyOp21
 70
     1
102
RTVSPropertyOp22
 70
     1
102
RTVSPropertyOp23
 70
     1
102
RTVSPropertyOp24
 70
     1
102
RTVSPropertyOp25
 70
     1
102
RTVSPropertyOp26
 70
     1
102
RTVSPropertyOp27
 70
     1
102
RTVSPropertyOp28
 70
     1
102
RTVSPropertyOp29
 70
     1
102
RTVSPropertyOp30
 70
     1
102
RTVSPropertyOp31
 70
     1
102
RTVSPropertyOp32
 70
     1
102
RTVSPropertyOp33
 70
     1
102
RTVSPropertyOp34
 70
     1
102
RTVSPropertyOp35
 70
     1
102
RTVSPropertyOp36
 70
     1
102
RTVSPropertyOp37
 70
     1
102
RTVSPropertyOp38
 70
     1
102
RTVSPropertyOp39
 70
     1
102
RTVSPropertyOp40
 70
     1
102
RTVSPropertyOp41
 70
     1
102
RTVSPropertyOp42
 70
     1
102
RTVSPropertyOp43
 70
     1
102
RTVSPropertyOp44
 70
     1
102
RTVSPropertyOp45
 70
     1
102
RTVSPropertyOp46
 70
     1
102
RTVSPropertyOp47
 70
     1
102
RTVSPropertyOp48
 70
     1
102
RTVSPropertyOp49
 70
     1
102
RTVSPropertyOp50
 70
     1
102
RTVSPropertyOp51
 70
     0
102
RTVSPropertyOp52
 70
     0
102
RTVSPropertyOp53
 70
     1
102
RTVSPropertyOp54
 70
     1
102
RTVSPropertyOp55
 70
     1
102
RTVSPropertyOp56
 70
     1
102
RTVSPropertyOp57
 70
     1
102
RTVSPropertyOp58
 70
     1
102
RTVSPropertyOp59
 70
     1
102
RTVSPropertyOp60
 70
     1
102
RTVSPropertyOp61
 70
     1
102
RTVSPropertyOp62
 70
     1
  0
XRECORD
  5
86EA9
102
{ACAD_REACTORS
330
86EA8
102
}
330
86EA8
100
AcDbXrecord
280
     1
102
RTVSPost2010Prop28
280
     0
102
RTVSPost2010PropOp28
 70
     1
102
RTVSPost2010Prop29
280
     1
102
RTVSPost2010PropOp29
 70
     1
102
RTVSPost2010Prop30
280
     1
102
RTVSPost2010PropOp30
 70
     1
102
RTVSPost2010Prop31
280
     0
102
RTVSPost2010PropOp31
 70
     1
102
RTVSPost2010Prop32
280
     0
102
RTVSPost2010PropOp32
 70
     1
102
RTVSPost2010Prop33
280
     0
102
RTVSPost2010PropOp33
 70
     1
102
RTVSPost2010Prop34
280
     0
102
RTVSPost2010PropOp34
 70
     1
102
RTVSPost2010Prop35
280
     0
102
RTVSPost2010PropOp35
 70
     1
102
RTVSPost2010Prop36
280
     0
102
RTVSPost2010PropOp36
 70
     1
102
RTVSPost2010Prop37
 90
       50
102
RTVSPost2010PropOp37
 70
     1
102
RTVSPost2010Prop38
140
0.0
102
RTVSPost2010PropOp38
 70
     1
102
RTVSPost2010Prop39
140
1.0
102
RTVSPost2010PropOp39
 70
     1
102
RTVSPost2010Prop40
 90
        0
102
RTVSPost2010PropOp40
 70
     1
102
RTVSPost2010Prop41ColorIndex
 90
       18
102
RTVSPost2010Prop41ColorRGB
 90
        0
102
RTVSPost2010PropOp41
 70
     1
102
RTVSPost2010Prop42
 90
       50
102
RTVSPost2010PropOp42
 70
     1
102
RTVSPost2010Prop43
 90
        3
102
RTVSPost2010PropOp43
 70
     1
102
RTVSPost2010Prop44ColorIndex
 90
        5
102
RTVSPost2010Prop44ColorRGB
 90
      255
102
RTVSPost2010PropOp44
 70
     1
102
RTVSPost2010Prop45
280
     0
102
RTVSPost2010PropOp45
 70
     1
102
RTVSPost2010Prop46
 90
       50
102
RTVSPost2010PropOp46
 70
     1
102
RTVSPost2010Prop47
 90
       50
102
RTVSPost2010PropOp47
 70
     1
102
RTVSPost2010Prop48
 90
       50
102
RTVSPost2010PropOp48
 70
     1
102
RTVSPost2010Prop49
280
     0
102
RTVSPost2010PropOp49
 70
     1
102
RTVSPost2010Prop50
 90
       50
102
RTVSPost2010PropOp50
 70
     1
102
RTVSPost2010Prop51ColorIndex
 90
      256
102
RTVSPost2010Prop51ColorRGB
 90
-16777216
102
RTVSPost2010PropOp51
 70
     0
102
RTVSPost2010Prop52
140
1.0
102
RTVSPost2010PropOp52
 70
     0
102
RTVSPost2010Prop53
 90
        2
102
RTVSPost2010PropOp53
 70
     1
102
RTVSPost2010Prop54
  1
strokes_ogs.tif
102
RTVSPost2010PropOp54
 70
     1
102
RTVSPost2010Prop55
280
     0
102
RTVSPost2010PropOp55
 70
     1
102
RTVSPost2010Prop56
140
1.0
102
RTVSPost2010PropOp56
 70
     1
102
RTVSPost2010Prop57
140
1.0
102
RTVSPost2010PropOp57
 70
     1
102
RTVSPropertyOp0
 70
     1
102
RTVSPropertyOp1
 70
     1
102
RTVSPropertyOp2
 70
     1
102
RTVSPropertyOp3
 70
     1
102
RTVSPropertyOp4
 70
     1
102
RTVSPropertyOp5
 70
     1
102
RTVSPropertyOp6
 70
     1
102
RTVSPropertyOp7
 70
     1
102
RTVSPropertyOp8
 70
     1
102
RTVSPropertyOp9
 70
     1
102
RTVSPropertyOp10
 70
     1
102
RTVSPropertyOp11
 70
     1
102
RTVSPropertyOp12
 70
     1
102
RTVSPropertyOp13
 70
     1
102
RTVSPropertyOp14
 70
     1
102
RTVSPropertyOp15
 70
     1
102
RTVSPropertyOp16
 70
     1
102
RTVSPropertyOp17
 70
     1
102
RTVSPropertyOp18
 70
     1
102
RTVSPropertyOp19
 70
     1
102
RTVSPropertyOp20
 70
     1
102
RTVSPropertyOp21
 70
     1
102
RTVSPropertyOp22
 70
     1
102
RTVSPropertyOp23
 70
     1
102
RTVSPropertyOp24
 70
     1
102
RTVSPropertyOp25
 70
     1
102
RTVSPropertyOp26
 70
     1
102
RTVSPropertyOp27
 70
     1
102
RTVSPropertyOp28
 70
     1
102
RTVSPropertyOp29
 70
     1
102
RTVSPropertyOp30
 70
     1
102
RTVSPropertyOp31
 70
     1
102
RTVSPropertyOp32
 70
     1
102
RTVSPropertyOp33
 70
     1
102
RTVSPropertyOp34
 70
     1
102
RTVSPropertyOp35
 70
     1
102
RTVSPropertyOp36
 70
     1
102
RTVSPropertyOp37
 70
     1
102
RTVSPropertyOp38
 70
     1
102
RTVSPropertyOp39
 70
     1
102
RTVSPropertyOp40
 70
     1
102
RTVSPropertyOp41
 70
     1
102
RTVSPropertyOp42
 70
     1
102
RTVSPropertyOp43
 70
     1
102
RTVSPropertyOp44
 70
     1
102
RTVSPropertyOp45
 70
     1
102
RTVSPropertyOp46
 70
     1
102
RTVSPropertyOp47
 70
     1
102
RTVSPropertyOp48
 70
     1
102
RTVSPropertyOp49
 70
     1
102
RTVSPropertyOp50
 70
     1
102
RTVSPropertyOp51
 70
     0
102
RTVSPropertyOp52
 70
     0
102
RTVSPropertyOp53
 70
     1
102
RTVSPropertyOp54
 70
     1
102
RTVSPropertyOp55
 70
     1
102
RTVSPropertyOp56
 70
     1
102
RTVSPropertyOp57
 70
     1
102
RTVSPropertyOp58
 70
     1
102
RTVSPropertyOp59
 70
     1
102
RTVSPropertyOp60
 70
     1
102
RTVSPropertyOp61
 70
     1
102
RTVSPropertyOp62
 70
     1
  0
XRECORD
  5
86EB1
102
{ACAD_REACTORS
330
86EB0
102
}
330
86EB0
100
AcDbXrecord
280
     1
102
RTVSPost2010Prop28
280
     0
102
RTVSPost2010PropOp28
 70
     1
102
RTVSPost2010Prop29
280
     1
102
RTVSPost2010PropOp29
 70
     1
102
RTVSPost2010Prop30
280
     1
102
RTVSPost2010PropOp30
 70
     1
102
RTVSPost2010Prop31
280
     0
102
RTVSPost2010PropOp31
 70
     1
102
RTVSPost2010Prop32
280
     0
102
RTVSPost2010PropOp32
 70
     1
102
RTVSPost2010Prop33
280
     0
102
RTVSPost2010PropOp33
 70
     1
102
RTVSPost2010Prop34
280
     0
102
RTVSPost2010PropOp34
 70
     1
102
RTVSPost2010Prop35
280
     0
102
RTVSPost2010PropOp35
 70
     1
102
RTVSPost2010Prop36
280
     0
102
RTVSPost2010PropOp36
 70
     1
102
RTVSPost2010Prop37
 90
       50
102
RTVSPost2010PropOp37
 70
     1
102
RTVSPost2010Prop38
140
0.0
102
RTVSPost2010PropOp38
 70
     1
102
RTVSPost2010Prop39
140
1.0
102
RTVSPost2010PropOp39
 70
     1
102
RTVSPost2010Prop40
 90
        0
102
RTVSPost2010PropOp40
 70
     1
102
RTVSPost2010Prop41ColorIndex
 90
       18
102
RTVSPost2010Prop41ColorRGB
 90
        0
102
RTVSPost2010PropOp41
 70
     1
102
RTVSPost2010Prop42
 90
       50
102
RTVSPost2010PropOp42
 70
     1
102
RTVSPost2010Prop43
 90
        3
102
RTVSPost2010PropOp43
 70
     1
102
RTVSPost2010Prop44ColorIndex
 90
        5
102
RTVSPost2010Prop44ColorRGB
 90
      255
102
RTVSPost2010PropOp44
 70
     1
102
RTVSPost2010Prop45
280
     0
102
RTVSPost2010PropOp45
 70
     1
102
RTVSPost2010Prop46
 90
       50
102
RTVSPost2010PropOp46
 70
     1
102
RTVSPost2010Prop47
 90
       50
102
RTVSPost2010PropOp47
 70
     1
102
RTVSPost2010Prop48
 90
       50
102
RTVSPost2010PropOp48
 70
     1
102
RTVSPost2010Prop49
280
     0
102
RTVSPost2010PropOp49
 70
     1
102
RTVSPost2010Prop50
 90
       50
102
RTVSPost2010PropOp50
 70
     1
102
RTVSPost2010Prop51ColorIndex
 90
      256
102
RTVSPost2010Prop51ColorRGB
 90
-16777216
102
RTVSPost2010PropOp51
 70
     0
102
RTVSPost2010Prop52
140
1.0
102
RTVSPost2010PropOp52
 70
     0
102
RTVSPost2010Prop53
 90
        2
102
RTVSPost2010PropOp53
 70
     1
102
RTVSPost2010Prop54
  1
strokes_ogs.tif
102
RTVSPost2010PropOp54
 70
     1
102
RTVSPost2010Prop55
280
     0
102
RTVSPost2010PropOp55
 70
     1
102
RTVSPost2010Prop56
140
1.0
102
RTVSPost2010PropOp56
 70
     1
102
RTVSPost2010Prop57
140
1.0
102
RTVSPost2010PropOp57
 70
     1
102
RTVSPropertyOp0
 70
     1
102
RTVSPropertyOp1
 70
     1
102
RTVSPropertyOp2
 70
     1
102
RTVSPropertyOp3
 70
     1
102
RTVSPropertyOp4
 70
     1
102
RTVSPropertyOp5
 70
     1
102
RTVSPropertyOp6
 70
     1
102
RTVSPropertyOp7
 70
     1
102
RTVSPropertyOp8
 70
     1
102
RTVSPropertyOp9
 70
     1
102
RTVSPropertyOp10
 70
     1
102
RTVSPropertyOp11
 70
     1
102
RTVSPropertyOp12
 70
     1
102
RTVSPropertyOp13
 70
     1
102
RTVSPropertyOp14
 70
     1
102
RTVSPropertyOp15
 70
     1
102
RTVSPropertyOp16
 70
     1
102
RTVSPropertyOp17
 70
     1
102
RTVSPropertyOp18
 70
     1
102
RTVSPropertyOp19
 70
     1
102
RTVSPropertyOp20
 70
     1
102
RTVSPropertyOp21
 70
     1
102
RTVSPropertyOp22
 70
     1
102
RTVSPropertyOp23
 70
     1
102
RTVSPropertyOp24
 70
     1
102
RTVSPropertyOp25
 70
     1
102
RTVSPropertyOp26
 70
     1
102
RTVSPropertyOp27
 70
     1
102
RTVSPropertyOp28
 70
     1
102
RTVSPropertyOp29
 70
     1
102
RTVSPropertyOp30
 70
     1
102
RTVSPropertyOp31
 70
     1
102
RTVSPropertyOp32
 70
     1
102
RTVSPropertyOp33
 70
     1
102
RTVSPropertyOp34
 70
     1
102
RTVSPropertyOp35
 70
     1
102
RTVSPropertyOp36
 70
     1
102
RTVSPropertyOp37
 70
     1
102
RTVSPropertyOp38
 70
     1
102
RTVSPropertyOp39
 70
     1
102
RTVSPropertyOp40
 70
     1
102
RTVSPropertyOp41
 70
     1
102
RTVSPropertyOp42
 70
     1
102
RTVSPropertyOp43
 70
     1
102
RTVSPropertyOp44
 70
     1
102
RTVSPropertyOp45
 70
     1
102
RTVSPropertyOp46
 70
     1
102
RTVSPropertyOp47
 70
     1
102
RTVSPropertyOp48
 70
     1
102
RTVSPropertyOp49
 70
     1
102
RTVSPropertyOp50
 70
     1
102
RTVSPropertyOp51
 70
     0
102
RTVSPropertyOp52
 70
     0
102
RTVSPropertyOp53
 70
     1
102
RTVSPropertyOp54
 70
     1
102
RTVSPropertyOp55
 70
     1
102
RTVSPropertyOp56
 70
     1
102
RTVSPropertyOp57
 70
     1
102
RTVSPropertyOp58
 70
     1
102
RTVSPropertyOp59
 70
     1
102
RTVSPropertyOp60
 70
     1
102
RTVSPropertyOp61
 70
     1
102
RTVSPropertyOp62
 70
     1
  0
XRECORD
  5
86EA3
102
{ACAD_REACTORS
330
86EA2
102
}
330
86EA2
100
AcDbXrecord
280
     1
102
RTVSPost2010Prop28
280
     0
102
RTVSPost2010PropOp28
 70
     1
102
RTVSPost2010Prop29
280
     1
102
RTVSPost2010PropOp29
 70
     1
102
RTVSPost2010Prop30
280
     1
102
RTVSPost2010PropOp30
 70
     1
102
RTVSPost2010Prop31
280
     0
102
RTVSPost2010PropOp31
 70
     1
102
RTVSPost2010Prop32
280
     0
102
RTVSPost2010PropOp32
 70
     1
102
RTVSPost2010Prop33
280
     0
102
RTVSPost2010PropOp33
 70
     1
102
RTVSPost2010Prop34
280
     0
102
RTVSPost2010PropOp34
 70
     1
102
RTVSPost2010Prop35
280
     0
102
RTVSPost2010PropOp35
 70
     1
102
RTVSPost2010Prop36
280
     0
102
RTVSPost2010PropOp36
 70
     1
102
RTVSPost2010Prop37
 90
       50
102
RTVSPost2010PropOp37
 70
     1
102
RTVSPost2010Prop38
140
0.0
102
RTVSPost2010PropOp38
 70
     1
102
RTVSPost2010Prop39
140
1.0
102
RTVSPost2010PropOp39
 70
     1
102
RTVSPost2010Prop40
 90
        0
102
RTVSPost2010PropOp40
 70
     1
102
RTVSPost2010Prop41ColorIndex
 90
       18
102
RTVSPost2010Prop41ColorRGB
 90
        0
102
RTVSPost2010PropOp41
 70
     1
102
RTVSPost2010Prop42
 90
       50
102
RTVSPost2010PropOp42
 70
     1
102
RTVSPost2010Prop43
 90
        3
102
RTVSPost2010PropOp43
 70
     1
102
RTVSPost2010Prop44ColorIndex
 90
        5
102
RTVSPost2010Prop44ColorRGB
 90
      255
102
RTVSPost2010PropOp44
 70
     1
102
RTVSPost2010Prop45
280
     0
102
RTVSPost2010PropOp45
 70
     1
102
RTVSPost2010Prop46
 90
       50
102
RTVSPost2010PropOp46
 70
     1
102
RTVSPost2010Prop47
 90
       50
102
RTVSPost2010PropOp47
 70
     1
102
RTVSPost2010Prop48
 90
       50
102
RTVSPost2010PropOp48
 70
     1
102
RTVSPost2010Prop49
280
     0
102
RTVSPost2010PropOp49
 70
     1
102
RTVSPost2010Prop50
 90
       50
102
RTVSPost2010PropOp50
 70
     1
102
RTVSPost2010Prop51ColorIndex
 90
      256
102
RTVSPost2010Prop51ColorRGB
 90
-16777216
102
RTVSPost2010PropOp51
 70
     0
102
RTVSPost2010Prop52
140
1.0
102
RTVSPost2010PropOp52
 70
     0
102
RTVSPost2010Prop53
 90
        2
102
RTVSPost2010PropOp53
 70
     1
102
RTVSPost2010Prop54
  1
strokes_ogs.tif
102
RTVSPost2010PropOp54
 70
     1
102
RTVSPost2010Prop55
280
     0
102
RTVSPost2010PropOp55
 70
     1
102
RTVSPost2010Prop56
140
1.0
102
RTVSPost2010PropOp56
 70
     1
102
RTVSPost2010Prop57
140
1.0
102
RTVSPost2010PropOp57
 70
     1
102
RTVSPropertyOp0
 70
     1
102
RTVSPropertyOp1
 70
     1
102
RTVSPropertyOp2
 70
     1
102
RTVSPropertyOp3
 70
     1
102
RTVSPropertyOp4
 70
     1
102
RTVSPropertyOp5
 70
     1
102
RTVSPropertyOp6
 70
     1
102
RTVSPropertyOp7
 70
     1
102
RTVSPropertyOp8
 70
     1
102
RTVSPropertyOp9
 70
     1
102
RTVSPropertyOp10
 70
     1
102
RTVSPropertyOp11
 70
     1
102
RTVSPropertyOp12
 70
     1
102
RTVSPropertyOp13
 70
     1
102
RTVSPropertyOp14
 70
     1
102
RTVSPropertyOp15
 70
     1
102
RTVSPropertyOp16
 70
     1
102
RTVSPropertyOp17
 70
     1
102
RTVSPropertyOp18
 70
     1
102
RTVSPropertyOp19
 70
     1
102
RTVSPropertyOp20
 70
     1
102
RTVSPropertyOp21
 70
     1
102
RTVSPropertyOp22
 70
     1
102
RTVSPropertyOp23
 70
     1
102
RTVSPropertyOp24
 70
     1
102
RTVSPropertyOp25
 70
     1
102
RTVSPropertyOp26
 70
     1
102
RTVSPropertyOp27
 70
     1
102
RTVSPropertyOp28
 70
     1
102
RTVSPropertyOp29
 70
     1
102
RTVSPropertyOp30
 70
     1
102
RTVSPropertyOp31
 70
     1
102
RTVSPropertyOp32
 70
     1
102
RTVSPropertyOp33
 70
     1
102
RTVSPropertyOp34
 70
     1
102
RTVSPropertyOp35
 70
     1
102
RTVSPropertyOp36
 70
     1
102
RTVSPropertyOp37
 70
     1
102
RTVSPropertyOp38
 70
     1
102
RTVSPropertyOp39
 70
     1
102
RTVSPropertyOp40
 70
     1
102
RTVSPropertyOp41
 70
     1
102
RTVSPropertyOp42
 70
     1
102
RTVSPropertyOp43
 70
     1
102
RTVSPropertyOp44
 70
     1
102
RTVSPropertyOp45
 70
     1
102
RTVSPropertyOp46
 70
     1
102
RTVSPropertyOp47
 70
     1
102
RTVSPropertyOp48
 70
     1
102
RTVSPropertyOp49
 70
     1
102
RTVSPropertyOp50
 70
     1
102
RTVSPropertyOp51
 70
     0
102
RTVSPropertyOp52
 70
     0
102
RTVSPropertyOp53
 70
     1
102
RTVSPropertyOp54
 70
     1
102
RTVSPropertyOp55
 70
     1
102
RTVSPropertyOp56
 70
     1
102
RTVSPropertyOp57
 70
     1
102
RTVSPropertyOp58
 70
     1
102
RTVSPropertyOp59
 70
     1
102
RTVSPropertyOp60
 70
     1
102
RTVSPropertyOp61
 70
     1
102
RTVSPropertyOp62
 70
     1
  0
XRECORD
  5
86EA7
102
{ACAD_REACTORS
330
86EA6
102
}
330
86EA6
100
AcDbXrecord
280
     1
102
RTVSPost2010Prop28
280
     0
102
RTVSPost2010PropOp28
 70
     1
102
RTVSPost2010Prop29
280
     1
102
RTVSPost2010PropOp29
 70
     1
102
RTVSPost2010Prop30
280
     1
102
RTVSPost2010PropOp30
 70
     1
102
RTVSPost2010Prop31
280
     0
102
RTVSPost2010PropOp31
 70
     1
102
RTVSPost2010Prop32
280
     0
102
RTVSPost2010PropOp32
 70
     1
102
RTVSPost2010Prop33
280
     0
102
RTVSPost2010PropOp33
 70
     1
102
RTVSPost2010Prop34
280
     0
102
RTVSPost2010PropOp34
 70
     1
102
RTVSPost2010Prop35
280
     0
102
RTVSPost2010PropOp35
 70
     1
102
RTVSPost2010Prop36
280
     0
102
RTVSPost2010PropOp36
 70
     1
102
RTVSPost2010Prop37
 90
       50
102
RTVSPost2010PropOp37
 70
     1
102
RTVSPost2010Prop38
140
0.0
102
RTVSPost2010PropOp38
 70
     1
102
RTVSPost2010Prop39
140
1.0
102
RTVSPost2010PropOp39
 70
     1
102
RTVSPost2010Prop40
 90
        0
102
RTVSPost2010PropOp40
 70
     1
102
RTVSPost2010Prop41ColorIndex
 90
       18
102
RTVSPost2010Prop41ColorRGB
 90
        0
102
RTVSPost2010PropOp41
 70
     1
102
RTVSPost2010Prop42
 90
       50
102
RTVSPost2010PropOp42
 70
     1
102
RTVSPost2010Prop43
 90
        3
102
RTVSPost2010PropOp43
 70
     1
102
RTVSPost2010Prop44ColorIndex
 90
        5
102
RTVSPost2010Prop44ColorRGB
 90
      255
102
RTVSPost2010PropOp44
 70
     1
102
RTVSPost2010Prop45
280
     0
102
RTVSPost2010PropOp45
 70
     1
102
RTVSPost2010Prop46
 90
       50
102
RTVSPost2010PropOp46
 70
     1
102
RTVSPost2010Prop47
 90
       50
102
RTVSPost2010PropOp47
 70
     1
102
RTVSPost2010Prop48
 90
       50
102
RTVSPost2010PropOp48
 70
     1
102
RTVSPost2010Prop49
280
     0
102
RTVSPost2010PropOp49
 70
     1
102
RTVSPost2010Prop50
 90
       50
102
RTVSPost2010PropOp50
 70
     1
102
RTVSPost2010Prop51ColorIndex
 90
      256
102
RTVSPost2010Prop51ColorRGB
 90
-16777216
102
RTVSPost2010PropOp51
 70
     0
102
RTVSPost2010Prop52
140
1.0
102
RTVSPost2010PropOp52
 70
     0
102
RTVSPost2010Prop53
 90
        2
102
RTVSPost2010PropOp53
 70
     1
102
RTVSPost2010Prop54
  1
strokes_ogs.tif
102
RTVSPost2010PropOp54
 70
     1
102
RTVSPost2010Prop55
280
     0
102
RTVSPost2010PropOp55
 70
     1
102
RTVSPost2010Prop56
140
1.0
102
RTVSPost2010PropOp56
 70
     1
102
RTVSPost2010Prop57
140
1.0
102
RTVSPost2010PropOp57
 70
     1
102
RTVSPropertyOp0
 70
     1
102
RTVSPropertyOp1
 70
     1
102
RTVSPropertyOp2
 70
     1
102
RTVSPropertyOp3
 70
     1
102
RTVSPropertyOp4
 70
     1
102
RTVSPropertyOp5
 70
     1
102
RTVSPropertyOp6
 70
     1
102
RTVSPropertyOp7
 70
     1
102
RTVSPropertyOp8
 70
     1
102
RTVSPropertyOp9
 70
     1
102
RTVSPropertyOp10
 70
     1
102
RTVSPropertyOp11
 70
     1
102
RTVSPropertyOp12
 70
     1
102
RTVSPropertyOp13
 70
     1
102
RTVSPropertyOp14
 70
     1
102
RTVSPropertyOp15
 70
     1
102
RTVSPropertyOp16
 70
     1
102
RTVSPropertyOp17
 70
     1
102
RTVSPropertyOp18
 70
     1
102
RTVSPropertyOp19
 70
     1
102
RTVSPropertyOp20
 70
     1
102
RTVSPropertyOp21
 70
     1
102
RTVSPropertyOp22
 70
     1
102
RTVSPropertyOp23
 70
     1
102
RTVSPropertyOp24
 70
     1
102
RTVSPropertyOp25
 70
     1
102
RTVSPropertyOp26
 70
     1
102
RTVSPropertyOp27
 70
     1
102
RTVSPropertyOp28
 70
     1
102
RTVSPropertyOp29
 70
     1
102
RTVSPropertyOp30
 70
     1
102
RTVSPropertyOp31
 70
     1
102
RTVSPropertyOp32
 70
     1
102
RTVSPropertyOp33
 70
     1
102
RTVSPropertyOp34
 70
     1
102
RTVSPropertyOp35
 70
     1
102
RTVSPropertyOp36
 70
     1
102
RTVSPropertyOp37
 70
     1
102
RTVSPropertyOp38
 70
     1
102
RTVSPropertyOp39
 70
     1
102
RTVSPropertyOp40
 70
     1
102
RTVSPropertyOp41
 70
     1
102
RTVSPropertyOp42
 70
     1
102
RTVSPropertyOp43
 70
     1
102
RTVSPropertyOp44
 70
     1
102
RTVSPropertyOp45
 70
     1
102
RTVSPropertyOp46
 70
     1
102
RTVSPropertyOp47
 70
     1
102
RTVSPropertyOp48
 70
     1
102
RTVSPropertyOp49
 70
     1
102
RTVSPropertyOp50
 70
     1
102
RTVSPropertyOp51
 70
     0
102
RTVSPropertyOp52
 70
     0
102
RTVSPropertyOp53
 70
     1
102
RTVSPropertyOp54
 70
     1
102
RTVSPropertyOp55
 70
     1
102
RTVSPropertyOp56
 70
     1
102
RTVSPropertyOp57
 70
     1
102
RTVSPropertyOp58
 70
     1
102
RTVSPropertyOp59
 70
     1
102
RTVSPropertyOp60
 70
     1
102
RTVSPropertyOp61
 70
     1
102
RTVSPropertyOp62
 70
     1
  0
XRECORD
  5
86EB7
102
{ACAD_REACTORS
330
86EB6
102
}
330
86EB6
100
AcDbXrecord
280
     1
102
RTVSPost2010Prop28
280
     0
102
RTVSPost2010PropOp28
 70
     1
102
RTVSPost2010Prop29
280
     1
102
RTVSPost2010PropOp29
 70
     1
102
RTVSPost2010Prop30
280
     1
102
RTVSPost2010PropOp30
 70
     1
102
RTVSPost2010Prop31
280
     0
102
RTVSPost2010PropOp31
 70
     1
102
RTVSPost2010Prop32
280
     0
102
RTVSPost2010PropOp32
 70
     1
102
RTVSPost2010Prop33
280
     0
102
RTVSPost2010PropOp33
 70
     1
102
RTVSPost2010Prop34
280
     0
102
RTVSPost2010PropOp34
 70
     1
102
RTVSPost2010Prop35
280
     0
102
RTVSPost2010PropOp35
 70
     1
102
RTVSPost2010Prop36
280
     0
102
RTVSPost2010PropOp36
 70
     1
102
RTVSPost2010Prop37
 90
       50
102
RTVSPost2010PropOp37
 70
     1
102
RTVSPost2010Prop38
140
0.0
102
RTVSPost2010PropOp38
 70
     1
102
RTVSPost2010Prop39
140
1.0
102
RTVSPost2010PropOp39
 70
     1
102
RTVSPost2010Prop40
 90
        0
102
RTVSPost2010PropOp40
 70
     1
102
RTVSPost2010Prop41ColorIndex
 90
       18
102
RTVSPost2010Prop41ColorRGB
 90
        0
102
RTVSPost2010PropOp41
 70
     1
102
RTVSPost2010Prop42
 90
       50
102
RTVSPost2010PropOp42
 70
     1
102
RTVSPost2010Prop43
 90
        3
102
RTVSPost2010PropOp43
 70
     1
102
RTVSPost2010Prop44ColorIndex
 90
        5
102
RTVSPost2010Prop44ColorRGB
 90
      255
102
RTVSPost2010PropOp44
 70
     1
102
RTVSPost2010Prop45
280
     0
102
RTVSPost2010PropOp45
 70
     1
102
RTVSPost2010Prop46
 90
       50
102
RTVSPost2010PropOp46
 70
     1
102
RTVSPost2010Prop47
 90
       50
102
RTVSPost2010PropOp47
 70
     1
102
RTVSPost2010Prop48
 90
       50
102
RTVSPost2010PropOp48
 70
     1
102
RTVSPost2010Prop49
280
     0
102
RTVSPost2010PropOp49
 70
     1
102
RTVSPost2010Prop50
 90
       50
102
RTVSPost2010PropOp50
 70
     1
102
RTVSPost2010Prop51ColorIndex
 90
      256
102
RTVSPost2010Prop51ColorRGB
 90
-16777216
102
RTVSPost2010PropOp51
 70
     0
102
RTVSPost2010Prop52
140
1.0
102
RTVSPost2010PropOp52
 70
     0
102
RTVSPost2010Prop53
 90
        2
102
RTVSPost2010PropOp53
 70
     1
102
RTVSPost2010Prop54
  1
strokes_ogs.tif
102
RTVSPost2010PropOp54
 70
     1
102
RTVSPost2010Prop55
280
     0
102
RTVSPost2010PropOp55
 70
     1
102
RTVSPost2010Prop56
140
1.0
102
RTVSPost2010PropOp56
 70
     1
102
RTVSPost2010Prop57
140
1.0
102
RTVSPost2010PropOp57
 70
     1
102
RTVSPropertyOp0
 70
     0
102
RTVSPropertyOp1
 70
     0
102
RTVSPropertyOp2
 70
     0
102
RTVSPropertyOp3
 70
     0
102
RTVSPropertyOp4
 70
     0
102
RTVSPropertyOp5
 70
     0
102
RTVSPropertyOp6
 70
     0
102
RTVSPropertyOp7
 70
     0
102
RTVSPropertyOp8
 70
     0
102
RTVSPropertyOp9
 70
     0
102
RTVSPropertyOp10
 70
     0
102
RTVSPropertyOp11
 70
     0
102
RTVSPropertyOp12
 70
     0
102
RTVSPropertyOp13
 70
     0
102
RTVSPropertyOp14
 70
     2
102
RTVSPropertyOp15
 70
     0
102
RTVSPropertyOp16
 70
     0
102
RTVSPropertyOp17
 70
     0
102
RTVSPropertyOp18
 70
     0
102
RTVSPropertyOp19
 70
     0
102
RTVSPropertyOp20
 70
     0
102
RTVSPropertyOp21
 70
     0
102
RTVSPropertyOp22
 70
     0
102
RTVSPropertyOp23
 70
     0
102
RTVSPropertyOp24
 70
     0
102
RTVSPropertyOp25
 70
     0
102
RTVSPropertyOp26
 70
     0
102
RTVSPropertyOp27
 70
     0
102
RTVSPropertyOp28
 70
     1
102
RTVSPropertyOp29
 70
     1
102
RTVSPropertyOp30
 70
     1
102
RTVSPropertyOp31
 70
     1
102
RTVSPropertyOp32
 70
     1
102
RTVSPropertyOp33
 70
     1
102
RTVSPropertyOp34
 70
     1
102
RTVSPropertyOp35
 70
     1
102
RTVSPropertyOp36
 70
     1
102
RTVSPropertyOp37
 70
     1
102
RTVSPropertyOp38
 70
     1
102
RTVSPropertyOp39
 70
     1
102
RTVSPropertyOp40
 70
     1
102
RTVSPropertyOp41
 70
     1
102
RTVSPropertyOp42
 70
     1
102
RTVSPropertyOp43
 70
     1
102
RTVSPropertyOp44
 70
     1
102
RTVSPropertyOp45
 70
     1
102
RTVSPropertyOp46
 70
     1
102
RTVSPropertyOp47
 70
     1
102
RTVSPropertyOp48
 70
     1
102
RTVSPropertyOp49
 70
     1
102
RTVSPropertyOp50
 70
     1
102
RTVSPropertyOp51
 70
     0
102
RTVSPropertyOp52
 70
     0
102
RTVSPropertyOp53
 70
     1
102
RTVSPropertyOp54
 70
     1
102
RTVSPropertyOp55
 70
     1
102
RTVSPropertyOp56
 70
     1
102
RTVSPropertyOp57
 70
     1
102
RTVSPropertyOp58
 70
     1
102
RTVSPropertyOp59
 70
     1
102
RTVSPropertyOp60
 70
     1
102
RTVSPropertyOp61
 70
     1
102
RTVSPropertyOp62
 70
     1
  0
XRECORD
  5
86EAF
102
{ACAD_REACTORS
330
86EAE
102
}
330
86EAE
100
AcDbXrecord
280
     1
102
RTVSPost2010Prop28
280
     0
102
RTVSPost2010PropOp28
 70
     1
102
RTVSPost2010Prop29
280
     1
102
RTVSPost2010PropOp29
 70
     1
102
RTVSPost2010Prop30
280
     1
102
RTVSPost2010PropOp30
 70
     1
102
RTVSPost2010Prop31
280
     0
102
RTVSPost2010PropOp31
 70
     1
102
RTVSPost2010Prop32
280
     0
102
RTVSPost2010PropOp32
 70
     1
102
RTVSPost2010Prop33
280
     0
102
RTVSPost2010PropOp33
 70
     1
102
RTVSPost2010Prop34
280
     0
102
RTVSPost2010PropOp34
 70
     1
102
RTVSPost2010Prop35
280
     0
102
RTVSPost2010PropOp35
 70
     1
102
RTVSPost2010Prop36
280
     0
102
RTVSPost2010PropOp36
 70
     1
102
RTVSPost2010Prop37
 90
       50
102
RTVSPost2010PropOp37
 70
     1
102
RTVSPost2010Prop38
140
0.0
102
RTVSPost2010PropOp38
 70
     1
102
RTVSPost2010Prop39
140
1.0
102
RTVSPost2010PropOp39
 70
     1
102
RTVSPost2010Prop40
 90
        0
102
RTVSPost2010PropOp40
 70
     1
102
RTVSPost2010Prop41ColorIndex
 90
       18
102
RTVSPost2010Prop41ColorRGB
 90
        0
102
RTVSPost2010PropOp41
 70
     1
102
RTVSPost2010Prop42
 90
       50
102
RTVSPost2010PropOp42
 70
     1
102
RTVSPost2010Prop43
 90
        3
102
RTVSPost2010PropOp43
 70
     1
102
RTVSPost2010Prop44ColorIndex
 90
        5
102
RTVSPost2010Prop44ColorRGB
 90
      255
102
RTVSPost2010PropOp44
 70
     1
102
RTVSPost2010Prop45
280
     0
102
RTVSPost2010PropOp45
 70
     1
102
RTVSPost2010Prop46
 90
       50
102
RTVSPost2010PropOp46
 70
     1
102
RTVSPost2010Prop47
 90
       50
102
RTVSPost2010PropOp47
 70
     1
102
RTVSPost2010Prop48
 90
       50
102
RTVSPost2010PropOp48
 70
     1
102
RTVSPost2010Prop49
280
     0
102
RTVSPost2010PropOp49
 70
     1
102
RTVSPost2010Prop50
 90
       50
102
RTVSPost2010PropOp50
 70
     1
102
RTVSPost2010Prop51ColorIndex
 90
      256
102
RTVSPost2010Prop51ColorRGB
 90
-16777216
102
RTVSPost2010PropOp51
 70
     0
102
RTVSPost2010Prop52
140
1.0
102
RTVSPost2010PropOp52
 70
     0
102
RTVSPost2010Prop53
 90
        2
102
RTVSPost2010PropOp53
 70
     1
102
RTVSPost2010Prop54
  1
strokes_ogs.tif
102
RTVSPost2010PropOp54
 70
     1
102
RTVSPost2010Prop55
280
     0
102
RTVSPost2010PropOp55
 70
     1
102
RTVSPost2010Prop56
140
1.0
102
RTVSPost2010PropOp56
 70
     1
102
RTVSPost2010Prop57
140
1.0
102
RTVSPost2010PropOp57
 70
     1
102
RTVSPropertyOp0
 70
     1
102
RTVSPropertyOp1
 70
     1
102
RTVSPropertyOp2
 70
     1
102
RTVSPropertyOp3
 70
     1
102
RTVSPropertyOp4
 70
     1
102
RTVSPropertyOp5
 70
     1
102
RTVSPropertyOp6
 70
     1
102
RTVSPropertyOp7
 70
     1
102
RTVSPropertyOp8
 70
     1
102
RTVSPropertyOp9
 70
     1
102
RTVSPropertyOp10
 70
     1
102
RTVSPropertyOp11
 70
     1
102
RTVSPropertyOp12
 70
     1
102
RTVSPropertyOp13
 70
     1
102
RTVSPropertyOp14
 70
     1
102
RTVSPropertyOp15
 70
     1
102
RTVSPropertyOp16
 70
     1
102
RTVSPropertyOp17
 70
     1
102
RTVSPropertyOp18
 70
     1
102
RTVSPropertyOp19
 70
     1
102
RTVSPropertyOp20
 70
     1
102
RTVSPropertyOp21
 70
     1
102
RTVSPropertyOp22
 70
     1
102
RTVSPropertyOp23
 70
     1
102
RTVSPropertyOp24
 70
     1
102
RTVSPropertyOp25
 70
     1
102
RTVSPropertyOp26
 70
     1
102
RTVSPropertyOp27
 70
     1
102
RTVSPropertyOp28
 70
     1
102
RTVSPropertyOp29
 70
     1
102
RTVSPropertyOp30
 70
     1
102
RTVSPropertyOp31
 70
     1
102
RTVSPropertyOp32
 70
     1
102
RTVSPropertyOp33
 70
     1
102
RTVSPropertyOp34
 70
     1
102
RTVSPropertyOp35
 70
     1
102
RTVSPropertyOp36
 70
     1
102
RTVSPropertyOp37
 70
     1
102
RTVSPropertyOp38
 70
     1
102
RTVSPropertyOp39
 70
     1
102
RTVSPropertyOp40
 70
     1
102
RTVSPropertyOp41
 70
     1
102
RTVSPropertyOp42
 70
     1
102
RTVSPropertyOp43
 70
     1
102
RTVSPropertyOp44
 70
     1
102
RTVSPropertyOp45
 70
     1
102
RTVSPropertyOp46
 70
     1
102
RTVSPropertyOp47
 70
     1
102
RTVSPropertyOp48
 70
     1
102
RTVSPropertyOp49
 70
     1
102
RTVSPropertyOp50
 70
     1
102
RTVSPropertyOp51
 70
     0
102
RTVSPropertyOp52
 70
     0
102
RTVSPropertyOp53
 70
     1
102
RTVSPropertyOp54
 70
     1
102
RTVSPropertyOp55
 70
     1
102
RTVSPropertyOp56
 70
     1
102
RTVSPropertyOp57
 70
     1
102
RTVSPropertyOp58
 70
     1
102
RTVSPropertyOp59
 70
     1
102
RTVSPropertyOp60
 70
     1
102
RTVSPropertyOp61
 70
     1
102
RTVSPropertyOp62
 70
     1
  0
XRECORD
  5
86E93
102
{ACAD_REACTORS
330
86E92
102
}
330
86E92
100
AcDbXrecord
280
     1
102
RTVSPost2010Prop28
280
     0
102
RTVSPost2010PropOp28
 70
     1
102
RTVSPost2010Prop29
280
     1
102
RTVSPost2010PropOp29
 70
     1
102
RTVSPost2010Prop30
280
     1
102
RTVSPost2010PropOp30
 70
     1
102
RTVSPost2010Prop31
280
     0
102
RTVSPost2010PropOp31
 70
     1
102
RTVSPost2010Prop32
280
     0
102
RTVSPost2010PropOp32
 70
     1
102
RTVSPost2010Prop33
280
     0
102
RTVSPost2010PropOp33
 70
     1
102
RTVSPost2010Prop34
280
     0
102
RTVSPost2010PropOp34
 70
     1
102
RTVSPost2010Prop35
280
     0
102
RTVSPost2010PropOp35
 70
     1
102
RTVSPost2010Prop36
280
     0
102
RTVSPost2010PropOp36
 70
     1
102
RTVSPost2010Prop37
 90
       50
102
RTVSPost2010PropOp37
 70
     1
102
RTVSPost2010Prop38
140
0.0
102
RTVSPost2010PropOp38
 70
     1
102
RTVSPost2010Prop39
140
1.0
102
RTVSPost2010PropOp39
 70
     1
102
RTVSPost2010Prop40
 90
        0
102
RTVSPost2010PropOp40
 70
     1
102
RTVSPost2010Prop41ColorIndex
 90
       18
102
RTVSPost2010Prop41ColorRGB
 90
        0
102
RTVSPost2010PropOp41
 70
     1
102
RTVSPost2010Prop42
 90
       50
102
RTVSPost2010PropOp42
 70
     1
102
RTVSPost2010Prop43
 90
        3
102
RTVSPost2010PropOp43
 70
     1
102
RTVSPost2010Prop44ColorIndex
 90
        5
102
RTVSPost2010Prop44ColorRGB
 90
      255
102
RTVSPost2010PropOp44
 70
     1
102
RTVSPost2010Prop45
280
     0
102
RTVSPost2010PropOp45
 70
     1
102
RTVSPost2010Prop46
 90
       50
102
RTVSPost2010PropOp46
 70
     1
102
RTVSPost2010Prop47
 90
       50
102
RTVSPost2010PropOp47
 70
     1
102
RTVSPost2010Prop48
 90
       50
102
RTVSPost2010PropOp48
 70
     1
102
RTVSPost2010Prop49
280
     0
102
RTVSPost2010PropOp49
 70
     1
102
RTVSPost2010Prop50
 90
       50
102
RTVSPost2010PropOp50
 70
     1
102
RTVSPost2010Prop51ColorIndex
 90
      256
102
RTVSPost2010Prop51ColorRGB
 90
-16777216
102
RTVSPost2010PropOp51
 70
     0
102
RTVSPost2010Prop52
140
1.0
102
RTVSPost2010PropOp52
 70
     0
102
RTVSPost2010Prop53
 90
        2
102
RTVSPost2010PropOp53
 70
     1
102
RTVSPost2010Prop54
  1
strokes_ogs.tif
102
RTVSPost2010PropOp54
 70
     1
102
RTVSPost2010Prop55
280
     0
102
RTVSPost2010PropOp55
 70
     1
102
RTVSPost2010Prop56
140
1.0
102
RTVSPost2010PropOp56
 70
     1
102
RTVSPost2010Prop57
140
1.0
102
RTVSPost2010PropOp57
 70
     1
102
RTVSPropertyOp0
 70
     1
102
RTVSPropertyOp1
 70
     1
102
RTVSPropertyOp2
 70
     1
102
RTVSPropertyOp3
 70
     1
102
RTVSPropertyOp4
 70
     1
102
RTVSPropertyOp5
 70
     1
102
RTVSPropertyOp6
 70
     1
102
RTVSPropertyOp7
 70
     1
102
RTVSPropertyOp8
 70
     1
102
RTVSPropertyOp9
 70
     1
102
RTVSPropertyOp10
 70
     1
102
RTVSPropertyOp11
 70
     1
102
RTVSPropertyOp12
 70
     1
102
RTVSPropertyOp13
 70
     1
102
RTVSPropertyOp14
 70
     1
102
RTVSPropertyOp15
 70
     1
102
RTVSPropertyOp16
 70
     1
102
RTVSPropertyOp17
 70
     1
102
RTVSPropertyOp18
 70
     1
102
RTVSPropertyOp19
 70
     1
102
RTVSPropertyOp20
 70
     1
102
RTVSPropertyOp21
 70
     1
102
RTVSPropertyOp22
 70
     1
102
RTVSPropertyOp23
 70
     1
102
RTVSPropertyOp24
 70
     1
102
RTVSPropertyOp25
 70
     1
102
RTVSPropertyOp26
 70
     1
102
RTVSPropertyOp27
 70
     1
102
RTVSPropertyOp28
 70
     1
102
RTVSPropertyOp29
 70
     1
102
RTVSPropertyOp30
 70
     1
102
RTVSPropertyOp31
 70
     1
102
RTVSPropertyOp32
 70
     1
102
RTVSPropertyOp33
 70
     1
102
RTVSPropertyOp34
 70
     1
102
RTVSPropertyOp35
 70
     1
102
RTVSPropertyOp36
 70
     1
102
RTVSPropertyOp37
 70
     1
102
RTVSPropertyOp38
 70
     1
102
RTVSPropertyOp39
 70
     1
102
RTVSPropertyOp40
 70
     1
102
RTVSPropertyOp41
 70
     1
102
RTVSPropertyOp42
 70
     1
102
RTVSPropertyOp43
 70
     1
102
RTVSPropertyOp44
 70
     1
102
RTVSPropertyOp45
 70
     1
102
RTVSPropertyOp46
 70
     1
102
RTVSPropertyOp47
 70
     1
102
RTVSPropertyOp48
 70
     1
102
RTVSPropertyOp49
 70
     1
102
RTVSPropertyOp50
 70
     1
102
RTVSPropertyOp51
 70
     0
102
RTVSPropertyOp52
 70
     0
102
RTVSPropertyOp53
 70
     1
102
RTVSPropertyOp54
 70
     1
102
RTVSPropertyOp55
 70
     1
102
RTVSPropertyOp56
 70
     1
102
RTVSPropertyOp57
 70
     1
102
RTVSPropertyOp58
 70
     1
102
RTVSPropertyOp59
 70
     1
102
RTVSPropertyOp60
 70
     1
102
RTVSPropertyOp61
 70
     1
102
RTVSPropertyOp62
 70
     1
  0
XRECORD
  5
86E95
102
{ACAD_REACTORS
330
86E94
102
}
330
86E94
100
AcDbXrecord
280
     1
102
RTVSPost2010Prop28
280
     0
102
RTVSPost2010PropOp28
 70
     1
102
RTVSPost2010Prop29
280
     1
102
RTVSPost2010PropOp29
 70
     1
102
RTVSPost2010Prop30
280
     1
102
RTVSPost2010PropOp30
 70
     1
102
RTVSPost2010Prop31
280
     0
102
RTVSPost2010PropOp31
 70
     1
102
RTVSPost2010Prop32
280
     0
102
RTVSPost2010PropOp32
 70
     1
102
RTVSPost2010Prop33
280
     0
102
RTVSPost2010PropOp33
 70
     1
102
RTVSPost2010Prop34
280
     0
102
RTVSPost2010PropOp34
 70
     1
102
RTVSPost2010Prop35
280
     0
102
RTVSPost2010PropOp35
 70
     1
102
RTVSPost2010Prop36
280
     0
102
RTVSPost2010PropOp36
 70
     1
102
RTVSPost2010Prop37
 90
       50
102
RTVSPost2010PropOp37
 70
     1
102
RTVSPost2010Prop38
140
0.0
102
RTVSPost2010PropOp38
 70
     1
102
RTVSPost2010Prop39
140
1.0
102
RTVSPost2010PropOp39
 70
     1
102
RTVSPost2010Prop40
 90
        0
102
RTVSPost2010PropOp40
 70
     1
102
RTVSPost2010Prop41ColorIndex
 90
       18
102
RTVSPost2010Prop41ColorRGB
 90
        0
102
RTVSPost2010PropOp41
 70
     1
102
RTVSPost2010Prop42
 90
       50
102
RTVSPost2010PropOp42
 70
     1
102
RTVSPost2010Prop43
 90
        3
102
RTVSPost2010PropOp43
 70
     1
102
RTVSPost2010Prop44ColorIndex
 90
        5
102
RTVSPost2010Prop44ColorRGB
 90
      255
102
RTVSPost2010PropOp44
 70
     1
102
RTVSPost2010Prop45
280
     0
102
RTVSPost2010PropOp45
 70
     1
102
RTVSPost2010Prop46
 90
       50
102
RTVSPost2010PropOp46
 70
     1
102
RTVSPost2010Prop47
 90
       50
102
RTVSPost2010PropOp47
 70
     1
102
RTVSPost2010Prop48
 90
       50
102
RTVSPost2010PropOp48
 70
     1
102
RTVSPost2010Prop49
280
     0
102
RTVSPost2010PropOp49
 70
     1
102
RTVSPost2010Prop50
 90
       50
102
RTVSPost2010PropOp50
 70
     1
102
RTVSPost2010Prop51ColorIndex
 90
      256
102
RTVSPost2010Prop51ColorRGB
 90
-16777216
102
RTVSPost2010PropOp51
 70
     0
102
RTVSPost2010Prop52
140
1.0
102
RTVSPost2010PropOp52
 70
     0
102
RTVSPost2010Prop53
 90
        2
102
RTVSPost2010PropOp53
 70
     1
102
RTVSPost2010Prop54
  1
strokes_ogs.tif
102
RTVSPost2010PropOp54
 70
     1
102
RTVSPost2010Prop55
280
     0
102
RTVSPost2010PropOp55
 70
     1
102
RTVSPost2010Prop56
140
1.0
102
RTVSPost2010PropOp56
 70
     1
102
RTVSPost2010Prop57
140
1.0
102
RTVSPost2010PropOp57
 70
     1
102
RTVSPropertyOp0
 70
     1
102
RTVSPropertyOp1
 70
     1
102
RTVSPropertyOp2
 70
     1
102
RTVSPropertyOp3
 70
     1
102
RTVSPropertyOp4
 70
     1
102
RTVSPropertyOp5
 70
     1
102
RTVSPropertyOp6
 70
     1
102
RTVSPropertyOp7
 70
     1
102
RTVSPropertyOp8
 70
     1
102
RTVSPropertyOp9
 70
     1
102
RTVSPropertyOp10
 70
     1
102
RTVSPropertyOp11
 70
     1
102
RTVSPropertyOp12
 70
     1
102
RTVSPropertyOp13
 70
     1
102
RTVSPropertyOp14
 70
     1
102
RTVSPropertyOp15
 70
     1
102
RTVSPropertyOp16
 70
     1
102
RTVSPropertyOp17
 70
     1
102
RTVSPropertyOp18
 70
     1
102
RTVSPropertyOp19
 70
     1
102
RTVSPropertyOp20
 70
     1
102
RTVSPropertyOp21
 70
     1
102
RTVSPropertyOp22
 70
     1
102
RTVSPropertyOp23
 70
     1
102
RTVSPropertyOp24
 70
     1
102
RTVSPropertyOp25
 70
     1
102
RTVSPropertyOp26
 70
     1
102
RTVSPropertyOp27
 70
     1
102
RTVSPropertyOp28
 70
     1
102
RTVSPropertyOp29
 70
     1
102
RTVSPropertyOp30
 70
     1
102
RTVSPropertyOp31
 70
     1
102
RTVSPropertyOp32
 70
     1
102
RTVSPropertyOp33
 70
     1
102
RTVSPropertyOp34
 70
     1
102
RTVSPropertyOp35
 70
     1
102
RTVSPropertyOp36
 70
     1
102
RTVSPropertyOp37
 70
     1
102
RTVSPropertyOp38
 70
     1
102
RTVSPropertyOp39
 70
     1
102
RTVSPropertyOp40
 70
     1
102
RTVSPropertyOp41
 70
     1
102
RTVSPropertyOp42
 70
     1
102
RTVSPropertyOp43
 70
     1
102
RTVSPropertyOp44
 70
     1
102
RTVSPropertyOp45
 70
     1
102
RTVSPropertyOp46
 70
     1
102
RTVSPropertyOp47
 70
     1
102
RTVSPropertyOp48
 70
     1
102
RTVSPropertyOp49
 70
     1
102
RTVSPropertyOp50
 70
     1
102
RTVSPropertyOp51
 70
     0
102
RTVSPropertyOp52
 70
     0
102
RTVSPropertyOp53
 70
     1
102
RTVSPropertyOp54
 70
     1
102
RTVSPropertyOp55
 70
     1
102
RTVSPropertyOp56
 70
     1
102
RTVSPropertyOp57
 70
     1
102
RTVSPropertyOp58
 70
     1
102
RTVSPropertyOp59
 70
     1
102
RTVSPropertyOp60
 70
     1
102
RTVSPropertyOp61
 70
     1
102
RTVSPropertyOp62
 70
     1
  0
XRECORD
  5
86E97
102
{ACAD_REACTORS
330
86E96
102
}
330
86E96
100
AcDbXrecord
280
     1
102
RTVSPost2010Prop28
280
     0
102
RTVSPost2010PropOp28
 70
     1
102
RTVSPost2010Prop29
280
     1
102
RTVSPost2010PropOp29
 70
     1
102
RTVSPost2010Prop30
280
     1
102
RTVSPost2010PropOp30
 70
     1
102
RTVSPost2010Prop31
280
     0
102
RTVSPost2010PropOp31
 70
     1
102
RTVSPost2010Prop32
280
     0
102
RTVSPost2010PropOp32
 70
     1
102
RTVSPost2010Prop33
280
     0
102
RTVSPost2010PropOp33
 70
     1
102
RTVSPost2010Prop34
280
     0
102
RTVSPost2010PropOp34
 70
     1
102
RTVSPost2010Prop35
280
     0
102
RTVSPost2010PropOp35
 70
     1
102
RTVSPost2010Prop36
280
     0
102
RTVSPost2010PropOp36
 70
     1
102
RTVSPost2010Prop37
 90
       50
102
RTVSPost2010PropOp37
 70
     1
102
RTVSPost2010Prop38
140
0.0
102
RTVSPost2010PropOp38
 70
     1
102
RTVSPost2010Prop39
140
1.0
102
RTVSPost2010PropOp39
 70
     1
102
RTVSPost2010Prop40
 90
        0
102
RTVSPost2010PropOp40
 70
     1
102
RTVSPost2010Prop41ColorIndex
 90
       18
102
RTVSPost2010Prop41ColorRGB
 90
        0
102
RTVSPost2010PropOp41
 70
     1
102
RTVSPost2010Prop42
 90
       50
102
RTVSPost2010PropOp42
 70
     1
102
RTVSPost2010Prop43
 90
        3
102
RTVSPost2010PropOp43
 70
     1
102
RTVSPost2010Prop44ColorIndex
 90
        5
102
RTVSPost2010Prop44ColorRGB
 90
      255
102
RTVSPost2010PropOp44
 70
     1
102
RTVSPost2010Prop45
280
     0
102
RTVSPost2010PropOp45
 70
     1
102
RTVSPost2010Prop46
 90
       50
102
RTVSPost2010PropOp46
 70
     1
102
RTVSPost2010Prop47
 90
       50
102
RTVSPost2010PropOp47
 70
     1
102
RTVSPost2010Prop48
 90
       50
102
RTVSPost2010PropOp48
 70
     1
102
RTVSPost2010Prop49
280
     0
102
RTVSPost2010PropOp49
 70
     1
102
RTVSPost2010Prop50
 90
       50
102
RTVSPost2010PropOp50
 70
     1
102
RTVSPost2010Prop51ColorIndex
 90
      256
102
RTVSPost2010Prop51ColorRGB
 90
-16777216
102
RTVSPost2010PropOp51
 70
     0
102
RTVSPost2010Prop52
140
1.0
102
RTVSPost2010PropOp52
 70
     0
102
RTVSPost2010Prop53
 90
        2
102
RTVSPost2010PropOp53
 70
     1
102
RTVSPost2010Prop54
  1
strokes_ogs.tif
102
RTVSPost2010PropOp54
 70
     1
102
RTVSPost2010Prop55
280
     0
102
RTVSPost2010PropOp55
 70
     1
102
RTVSPost2010Prop56
140
1.0
102
RTVSPost2010PropOp56
 70
     1
102
RTVSPost2010Prop57
140
1.0
102
RTVSPost2010PropOp57
 70
     1
102
RTVSPropertyOp0
 70
     1
102
RTVSPropertyOp1
 70
     1
102
RTVSPropertyOp2
 70
     1
102
RTVSPropertyOp3
 70
     1
102
RTVSPropertyOp4
 70
     1
102
RTVSPropertyOp5
 70
     1
102
RTVSPropertyOp6
 70
     1
102
RTVSPropertyOp7
 70
     1
102
RTVSPropertyOp8
 70
     1
102
RTVSPropertyOp9
 70
     1
102
RTVSPropertyOp10
 70
     1
102
RTVSPropertyOp11
 70
     1
102
RTVSPropertyOp12
 70
     1
102
RTVSPropertyOp13
 70
     1
102
RTVSPropertyOp14
 70
     1
102
RTVSPropertyOp15
 70
     1
102
RTVSPropertyOp16
 70
     1
102
RTVSPropertyOp17
 70
     1
102
RTVSPropertyOp18
 70
     1
102
RTVSPropertyOp19
 70
     1
102
RTVSPropertyOp20
 70
     1
102
RTVSPropertyOp21
 70
     1
102
RTVSPropertyOp22
 70
     1
102
RTVSPropertyOp23
 70
     1
102
RTVSPropertyOp24
 70
     1
102
RTVSPropertyOp25
 70
     1
102
RTVSPropertyOp26
 70
     1
102
RTVSPropertyOp27
 70
     1
102
RTVSPropertyOp28
 70
     1
102
RTVSPropertyOp29
 70
     1
102
RTVSPropertyOp30
 70
     1
102
RTVSPropertyOp31
 70
     1
102
RTVSPropertyOp32
 70
     1
102
RTVSPropertyOp33
 70
     1
102
RTVSPropertyOp34
 70
     1
102
RTVSPropertyOp35
 70
     1
102
RTVSPropertyOp36
 70
     1
102
RTVSPropertyOp37
 70
     1
102
RTVSPropertyOp38
 70
     1
102
RTVSPropertyOp39
 70
     1
102
RTVSPropertyOp40
 70
     1
102
RTVSPropertyOp41
 70
     1
102
RTVSPropertyOp42
 70
     1
102
RTVSPropertyOp43
 70
     1
102
RTVSPropertyOp44
 70
     1
102
RTVSPropertyOp45
 70
     1
102
RTVSPropertyOp46
 70
     1
102
RTVSPropertyOp47
 70
     1
102
RTVSPropertyOp48
 70
     1
102
RTVSPropertyOp49
 70
     1
102
RTVSPropertyOp50
 70
     1
102
RTVSPropertyOp51
 70
     0
102
RTVSPropertyOp52
 70
     0
102
RTVSPropertyOp53
 70
     1
102
RTVSPropertyOp54
 70
     1
102
RTVSPropertyOp55
 70
     1
102
RTVSPropertyOp56
 70
     1
102
RTVSPropertyOp57
 70
     1
102
RTVSPropertyOp58
 70
     1
102
RTVSPropertyOp59
 70
     1
102
RTVSPropertyOp60
 70
     1
102
RTVSPropertyOp61
 70
     1
102
RTVSPropertyOp62
 70
     1
  0
XRECORD
  5
86E99
102
{ACAD_REACTORS
330
86E98
102
}
330
86E98
100
AcDbXrecord
280
     1
102
RTVSPost2010Prop28
280
     0
102
RTVSPost2010PropOp28
 70
     1
102
RTVSPost2010Prop29
280
     1
102
RTVSPost2010PropOp29
 70
     1
102
RTVSPost2010Prop30
280
     1
102
RTVSPost2010PropOp30
 70
     1
102
RTVSPost2010Prop31
280
     0
102
RTVSPost2010PropOp31
 70
     1
102
RTVSPost2010Prop32
280
     0
102
RTVSPost2010PropOp32
 70
     1
102
RTVSPost2010Prop33
280
     0
102
RTVSPost2010PropOp33
 70
     1
102
RTVSPost2010Prop34
280
     0
102
RTVSPost2010PropOp34
 70
     1
102
RTVSPost2010Prop35
280
     0
102
RTVSPost2010PropOp35
 70
     1
102
RTVSPost2010Prop36
280
     0
102
RTVSPost2010PropOp36
 70
     1
102
RTVSPost2010Prop37
 90
       50
102
RTVSPost2010PropOp37
 70
     1
102
RTVSPost2010Prop38
140
0.0
102
RTVSPost2010PropOp38
 70
     1
102
RTVSPost2010Prop39
140
1.0
102
RTVSPost2010PropOp39
 70
     1
102
RTVSPost2010Prop40
 90
        0
102
RTVSPost2010PropOp40
 70
     1
102
RTVSPost2010Prop41ColorIndex
 90
       18
102
RTVSPost2010Prop41ColorRGB
 90
        0
102
RTVSPost2010PropOp41
 70
     1
102
RTVSPost2010Prop42
 90
       50
102
RTVSPost2010PropOp42
 70
     1
102
RTVSPost2010Prop43
 90
        3
102
RTVSPost2010PropOp43
 70
     1
102
RTVSPost2010Prop44ColorIndex
 90
        5
102
RTVSPost2010Prop44ColorRGB
 90
      255
102
RTVSPost2010PropOp44
 70
     1
102
RTVSPost2010Prop45
280
     0
102
RTVSPost2010PropOp45
 70
     1
102
RTVSPost2010Prop46
 90
       50
102
RTVSPost2010PropOp46
 70
     1
102
RTVSPost2010Prop47
 90
       50
102
RTVSPost2010PropOp47
 70
     1
102
RTVSPost2010Prop48
 90
       50
102
RTVSPost2010PropOp48
 70
     1
102
RTVSPost2010Prop49
280
     0
102
RTVSPost2010PropOp49
 70
     1
102
RTVSPost2010Prop50
 90
       50
102
RTVSPost2010PropOp50
 70
     1
102
RTVSPost2010Prop51ColorIndex
 90
      256
102
RTVSPost2010Prop51ColorRGB
 90
-16777216
102
RTVSPost2010PropOp51
 70
     0
102
RTVSPost2010Prop52
140
1.0
102
RTVSPost2010PropOp52
 70
     0
102
RTVSPost2010Prop53
 90
        2
102
RTVSPost2010PropOp53
 70
     1
102
RTVSPost2010Prop54
  1
strokes_ogs.tif
102
RTVSPost2010PropOp54
 70
     1
102
RTVSPost2010Prop55
280
     0
102
RTVSPost2010PropOp55
 70
     1
102
RTVSPost2010Prop56
140
1.0
102
RTVSPost2010PropOp56
 70
     1
102
RTVSPost2010Prop57
140
1.0
102
RTVSPost2010PropOp57
 70
     1
102
RTVSPropertyOp0
 70
     1
102
RTVSPropertyOp1
 70
     1
102
RTVSPropertyOp2
 70
     1
102
RTVSPropertyOp3
 70
     1
102
RTVSPropertyOp4
 70
     1
102
RTVSPropertyOp5
 70
     1
102
RTVSPropertyOp6
 70
     1
102
RTVSPropertyOp7
 70
     1
102
RTVSPropertyOp8
 70
     1
102
RTVSPropertyOp9
 70
     1
102
RTVSPropertyOp10
 70
     1
102
RTVSPropertyOp11
 70
     1
102
RTVSPropertyOp12
 70
     1
102
RTVSPropertyOp13
 70
     1
102
RTVSPropertyOp14
 70
     1
102
RTVSPropertyOp15
 70
     1
102
RTVSPropertyOp16
 70
     1
102
RTVSPropertyOp17
 70
     1
102
RTVSPropertyOp18
 70
     1
102
RTVSPropertyOp19
 70
     1
102
RTVSPropertyOp20
 70
     1
102
RTVSPropertyOp21
 70
     1
102
RTVSPropertyOp22
 70
     1
102
RTVSPropertyOp23
 70
     1
102
RTVSPropertyOp24
 70
     1
102
RTVSPropertyOp25
 70
     1
102
RTVSPropertyOp26
 70
     1
102
RTVSPropertyOp27
 70
     1
102
RTVSPropertyOp28
 70
     1
102
RTVSPropertyOp29
 70
     1
102
RTVSPropertyOp30
 70
     1
102
RTVSPropertyOp31
 70
     1
102
RTVSPropertyOp32
 70
     1
102
RTVSPropertyOp33
 70
     1
102
RTVSPropertyOp34
 70
     1
102
RTVSPropertyOp35
 70
     1
102
RTVSPropertyOp36
 70
     1
102
RTVSPropertyOp37
 70
     1
102
RTVSPropertyOp38
 70
     1
102
RTVSPropertyOp39
 70
     1
102
RTVSPropertyOp40
 70
     1
102
RTVSPropertyOp41
 70
     1
102
RTVSPropertyOp42
 70
     1
102
RTVSPropertyOp43
 70
     1
102
RTVSPropertyOp44
 70
     1
102
RTVSPropertyOp45
 70
     1
102
RTVSPropertyOp46
 70
     1
102
RTVSPropertyOp47
 70
     1
102
RTVSPropertyOp48
 70
     1
102
RTVSPropertyOp49
 70
     1
102
RTVSPropertyOp50
 70
     1
102
RTVSPropertyOp51
 70
     0
102
RTVSPropertyOp52
 70
     0
102
RTVSPropertyOp53
 70
     1
102
RTVSPropertyOp54
 70
     1
102
RTVSPropertyOp55
 70
     1
102
RTVSPropertyOp56
 70
     1
102
RTVSPropertyOp57
 70
     1
102
RTVSPropertyOp58
 70
     1
102
RTVSPropertyOp59
 70
     1
102
RTVSPropertyOp60
 70
     1
102
RTVSPropertyOp61
 70
     1
102
RTVSPropertyOp62
 70
     1
  0
XRECORD
  5
86EBB
102
{ACAD_REACTORS
330
86EBA
102
}
330
86EBA
100
AcDbXrecord
280
     1
102
RTVSPost2010Prop28
280
     0
102
RTVSPost2010PropOp28
 70
     1
102
RTVSPost2010Prop29
280
     1
102
RTVSPost2010PropOp29
 70
     1
102
RTVSPost2010Prop30
280
     1
102
RTVSPost2010PropOp30
 70
     1
102
RTVSPost2010Prop31
280
     0
102
RTVSPost2010PropOp31
 70
     1
102
RTVSPost2010Prop32
280
     0
102
RTVSPost2010PropOp32
 70
     1
102
RTVSPost2010Prop33
280
     0
102
RTVSPost2010PropOp33
 70
     1
102
RTVSPost2010Prop34
280
     0
102
RTVSPost2010PropOp34
 70
     1
102
RTVSPost2010Prop35
280
     0
102
RTVSPost2010PropOp35
 70
     1
102
RTVSPost2010Prop36
280
     0
102
RTVSPost2010PropOp36
 70
     1
102
RTVSPost2010Prop37
 90
       50
102
RTVSPost2010PropOp37
 70
     1
102
RTVSPost2010Prop38
140
0.0
102
RTVSPost2010PropOp38
 70
     1
102
RTVSPost2010Prop39
140
1.0
102
RTVSPost2010PropOp39
 70
     1
102
RTVSPost2010Prop40
 90
        0
102
RTVSPost2010PropOp40
 70
     1
102
RTVSPost2010Prop41ColorIndex
 90
       18
102
RTVSPost2010Prop41ColorRGB
 90
        0
102
RTVSPost2010PropOp41
 70
     1
102
RTVSPost2010Prop42
 90
       50
102
RTVSPost2010PropOp42
 70
     1
102
RTVSPost2010Prop43
 90
        3
102
RTVSPost2010PropOp43
 70
     1
102
RTVSPost2010Prop44ColorIndex
 90
        5
102
RTVSPost2010Prop44ColorRGB
 90
      255
102
RTVSPost2010PropOp44
 70
     1
102
RTVSPost2010Prop45
280
     0
102
RTVSPost2010PropOp45
 70
     1
102
RTVSPost2010Prop46
 90
       50
102
RTVSPost2010PropOp46
 70
     1
102
RTVSPost2010Prop47
 90
       50
102
RTVSPost2010PropOp47
 70
     1
102
RTVSPost2010Prop48
 90
       50
102
RTVSPost2010PropOp48
 70
     1
102
RTVSPost2010Prop49
280
     0
102
RTVSPost2010PropOp49
 70
     1
102
RTVSPost2010Prop50
 90
       50
102
RTVSPost2010PropOp50
 70
     1
102
RTVSPost2010Prop51ColorIndex
 90
      256
102
RTVSPost2010Prop51ColorRGB
 90
-16777216
102
RTVSPost2010PropOp51
 70
     0
102
RTVSPost2010Prop52
140
1.0
102
RTVSPost2010PropOp52
 70
     0
102
RTVSPost2010Prop53
 90
        2
102
RTVSPost2010PropOp53
 70
     1
102
RTVSPost2010Prop54
  1
strokes_ogs.tif
102
RTVSPost2010PropOp54
 70
     1
102
RTVSPost2010Prop55
280
     0
102
RTVSPost2010PropOp55
 70
     1
102
RTVSPost2010Prop56
140
1.0
102
RTVSPost2010PropOp56
 70
     1
102
RTVSPost2010Prop57
140
1.0
102
RTVSPost2010PropOp57
 70
     1
102
RTVSPropertyOp0
 70
     1
102
RTVSPropertyOp1
 70
     1
102
RTVSPropertyOp2
 70
     1
102
RTVSPropertyOp3
 70
     1
102
RTVSPropertyOp4
 70
     1
102
RTVSPropertyOp5
 70
     1
102
RTVSPropertyOp6
 70
     1
102
RTVSPropertyOp7
 70
     1
102
RTVSPropertyOp8
 70
     1
102
RTVSPropertyOp9
 70
     1
102
RTVSPropertyOp10
 70
     1
102
RTVSPropertyOp11
 70
     1
102
RTVSPropertyOp12
 70
     1
102
RTVSPropertyOp13
 70
     1
102
RTVSPropertyOp14
 70
     1
102
RTVSPropertyOp15
 70
     1
102
RTVSPropertyOp16
 70
     1
102
RTVSPropertyOp17
 70
     1
102
RTVSPropertyOp18
 70
     1
102
RTVSPropertyOp19
 70
     1
102
RTVSPropertyOp20
 70
     1
102
RTVSPropertyOp21
 70
     1
102
RTVSPropertyOp22
 70
     1
102
RTVSPropertyOp23
 70
     1
102
RTVSPropertyOp24
 70
     1
102
RTVSPropertyOp25
 70
     1
102
RTVSPropertyOp26
 70
     1
102
RTVSPropertyOp27
 70
     1
102
RTVSPropertyOp28
 70
     1
102
RTVSPropertyOp29
 70
     1
102
RTVSPropertyOp30
 70
     1
102
RTVSPropertyOp31
 70
     1
102
RTVSPropertyOp32
 70
     1
102
RTVSPropertyOp33
 70
     1
102
RTVSPropertyOp34
 70
     1
102
RTVSPropertyOp35
 70
     1
102
RTVSPropertyOp36
 70
     1
102
RTVSPropertyOp37
 70
     1
102
RTVSPropertyOp38
 70
     1
102
RTVSPropertyOp39
 70
     1
102
RTVSPropertyOp40
 70
     1
102
RTVSPropertyOp41
 70
     1
102
RTVSPropertyOp42
 70
     1
102
RTVSPropertyOp43
 70
     1
102
RTVSPropertyOp44
 70
     1
102
RTVSPropertyOp45
 70
     1
102
RTVSPropertyOp46
 70
     1
102
RTVSPropertyOp47
 70
     1
102
RTVSPropertyOp48
 70
     1
102
RTVSPropertyOp49
 70
     1
102
RTVSPropertyOp50
 70
     1
102
RTVSPropertyOp51
 70
     0
102
RTVSPropertyOp52
 70
     0
102
RTVSPropertyOp53
 70
     1
102
RTVSPropertyOp54
 70
     1
102
RTVSPropertyOp55
 70
     1
102
RTVSPropertyOp56
 70
     1
102
RTVSPropertyOp57
 70
     1
102
RTVSPropertyOp58
 70
     1
102
RTVSPropertyOp59
 70
     1
102
RTVSPropertyOp60
 70
     1
102
RTVSPropertyOp61
 70
     1
102
RTVSPropertyOp62
 70
     1
  0
XRECORD
  5
86EB3
102
{ACAD_REACTORS
330
86EB2
102
}
330
86EB2
100
AcDbXrecord
280
     1
102
RTVSPost2010Prop28
280
     0
102
RTVSPost2010PropOp28
 70
     1
102
RTVSPost2010Prop29
280
     1
102
RTVSPost2010PropOp29
 70
     1
102
RTVSPost2010Prop30
280
     1
102
RTVSPost2010PropOp30
 70
     1
102
RTVSPost2010Prop31
280
     0
102
RTVSPost2010PropOp31
 70
     1
102
RTVSPost2010Prop32
280
     0
102
RTVSPost2010PropOp32
 70
     1
102
RTVSPost2010Prop33
280
     0
102
RTVSPost2010PropOp33
 70
     1
102
RTVSPost2010Prop34
280
     0
102
RTVSPost2010PropOp34
 70
     1
102
RTVSPost2010Prop35
280
     0
102
RTVSPost2010PropOp35
 70
     1
102
RTVSPost2010Prop36
280
     0
102
RTVSPost2010PropOp36
 70
     1
102
RTVSPost2010Prop37
 90
       50
102
RTVSPost2010PropOp37
 70
     1
102
RTVSPost2010Prop38
140
0.0
102
RTVSPost2010PropOp38
 70
     1
102
RTVSPost2010Prop39
140
1.0
102
RTVSPost2010PropOp39
 70
     1
102
RTVSPost2010Prop40
 90
        0
102
RTVSPost2010PropOp40
 70
     1
102
RTVSPost2010Prop41ColorIndex
 90
       18
102
RTVSPost2010Prop41ColorRGB
 90
        0
102
RTVSPost2010PropOp41
 70
     1
102
RTVSPost2010Prop42
 90
       50
102
RTVSPost2010PropOp42
 70
     1
102
RTVSPost2010Prop43
 90
        3
102
RTVSPost2010PropOp43
 70
     1
102
RTVSPost2010Prop44ColorIndex
 90
        5
102
RTVSPost2010Prop44ColorRGB
 90
      255
102
RTVSPost2010PropOp44
 70
     1
102
RTVSPost2010Prop45
280
     0
102
RTVSPost2010PropOp45
 70
     1
102
RTVSPost2010Prop46
 90
       50
102
RTVSPost2010PropOp46
 70
     1
102
RTVSPost2010Prop47
 90
       50
102
RTVSPost2010PropOp47
 70
     1
102
RTVSPost2010Prop48
 90
       50
102
RTVSPost2010PropOp48
 70
     1
102
RTVSPost2010Prop49
280
     0
102
RTVSPost2010PropOp49
 70
     1
102
RTVSPost2010Prop50
 90
       50
102
RTVSPost2010PropOp50
 70
     1
102
RTVSPost2010Prop51ColorIndex
 90
      256
102
RTVSPost2010Prop51ColorRGB
 90
-16777216
102
RTVSPost2010PropOp51
 70
     0
102
RTVSPost2010Prop52
140
1.0
102
RTVSPost2010PropOp52
 70
     0
102
RTVSPost2010Prop53
 90
        2
102
RTVSPost2010PropOp53
 70
     1
102
RTVSPost2010Prop54
  1
strokes_ogs.tif
102
RTVSPost2010PropOp54
 70
     1
102
RTVSPost2010Prop55
280
     0
102
RTVSPost2010PropOp55
 70
     1
102
RTVSPost2010Prop56
140
1.0
102
RTVSPost2010PropOp56
 70
     1
102
RTVSPost2010Prop57
140
1.0
102
RTVSPost2010PropOp57
 70
     1
102
RTVSPropertyOp0
 70
     0
102
RTVSPropertyOp1
 70
     0
102
RTVSPropertyOp2
 70
     0
102
RTVSPropertyOp3
 70
     0
102
RTVSPropertyOp4
 70
     0
102
RTVSPropertyOp5
 70
     0
102
RTVSPropertyOp6
 70
     0
102
RTVSPropertyOp7
 70
     0
102
RTVSPropertyOp8
 70
     0
102
RTVSPropertyOp9
 70
     0
102
RTVSPropertyOp10
 70
     0
102
RTVSPropertyOp11
 70
     0
102
RTVSPropertyOp12
 70
     0
102
RTVSPropertyOp13
 70
     0
102
RTVSPropertyOp14
 70
     2
102
RTVSPropertyOp15
 70
     0
102
RTVSPropertyOp16
 70
     0
102
RTVSPropertyOp17
 70
     0
102
RTVSPropertyOp18
 70
     0
102
RTVSPropertyOp19
 70
     0
102
RTVSPropertyOp20
 70
     0
102
RTVSPropertyOp21
 70
     0
102
RTVSPropertyOp22
 70
     0
102
RTVSPropertyOp23
 70
     0
102
RTVSPropertyOp24
 70
     0
102
RTVSPropertyOp25
 70
     0
102
RTVSPropertyOp26
 70
     0
102
RTVSPropertyOp27
 70
     0
102
RTVSPropertyOp28
 70
     1
102
RTVSPropertyOp29
 70
     1
102
RTVSPropertyOp30
 70
     1
102
RTVSPropertyOp31
 70
     1
102
RTVSPropertyOp32
 70
     1
102
RTVSPropertyOp33
 70
     1
102
RTVSPropertyOp34
 70
     1
102
RTVSPropertyOp35
 70
     1
102
RTVSPropertyOp36
 70
     1
102
RTVSPropertyOp37
 70
     1
102
RTVSPropertyOp38
 70
     1
102
RTVSPropertyOp39
 70
     1
102
RTVSPropertyOp40
 70
     1
102
RTVSPropertyOp41
 70
     1
102
RTVSPropertyOp42
 70
     1
102
RTVSPropertyOp43
 70
     1
102
RTVSPropertyOp44
 70
     1
102
RTVSPropertyOp45
 70
     1
102
RTVSPropertyOp46
 70
     1
102
RTVSPropertyOp47
 70
     1
102
RTVSPropertyOp48
 70
     1
102
RTVSPropertyOp49
 70
     1
102
RTVSPropertyOp50
 70
     1
102
RTVSPropertyOp51
 70
     0
102
RTVSPropertyOp52
 70
     0
102
RTVSPropertyOp53
 70
     1
102
RTVSPropertyOp54
 70
     1
102
RTVSPropertyOp55
 70
     1
102
RTVSPropertyOp56
 70
     1
102
RTVSPropertyOp57
 70
     1
102
RTVSPropertyOp58
 70
     1
102
RTVSPropertyOp59
 70
     1
102
RTVSPropertyOp60
 70
     1
102
RTVSPropertyOp61
 70
     1
102
RTVSPropertyOp62
 70
     1
  0
XRECORD
  5
86EAD
102
{ACAD_REACTORS
330
86EAC
102
}
330
86EAC
100
AcDbXrecord
280
     1
102
RTVSPost2010Prop28
280
     0
102
RTVSPost2010PropOp28
 70
     1
102
RTVSPost2010Prop29
280
     1
102
RTVSPost2010PropOp29
 70
     1
102
RTVSPost2010Prop30
280
     1
102
RTVSPost2010PropOp30
 70
     1
102
RTVSPost2010Prop31
280
     0
102
RTVSPost2010PropOp31
 70
     1
102
RTVSPost2010Prop32
280
     0
102
RTVSPost2010PropOp32
 70
     1
102
RTVSPost2010Prop33
280
     0
102
RTVSPost2010PropOp33
 70
     1
102
RTVSPost2010Prop34
280
     0
102
RTVSPost2010PropOp34
 70
     1
102
RTVSPost2010Prop35
280
     0
102
RTVSPost2010PropOp35
 70
     1
102
RTVSPost2010Prop36
280
     0
102
RTVSPost2010PropOp36
 70
     1
102
RTVSPost2010Prop37
 90
       50
102
RTVSPost2010PropOp37
 70
     1
102
RTVSPost2010Prop38
140
0.0
102
RTVSPost2010PropOp38
 70
     1
102
RTVSPost2010Prop39
140
1.0
102
RTVSPost2010PropOp39
 70
     1
102
RTVSPost2010Prop40
 90
        0
102
RTVSPost2010PropOp40
 70
     1
102
RTVSPost2010Prop41ColorIndex
 90
       18
102
RTVSPost2010Prop41ColorRGB
 90
        0
102
RTVSPost2010PropOp41
 70
     1
102
RTVSPost2010Prop42
 90
       50
102
RTVSPost2010PropOp42
 70
     1
102
RTVSPost2010Prop43
 90
        3
102
RTVSPost2010PropOp43
 70
     1
102
RTVSPost2010Prop44ColorIndex
 90
        5
102
RTVSPost2010Prop44ColorRGB
 90
      255
102
RTVSPost2010PropOp44
 70
     1
102
RTVSPost2010Prop45
280
     0
102
RTVSPost2010PropOp45
 70
     1
102
RTVSPost2010Prop46
 90
       50
102
RTVSPost2010PropOp46
 70
     1
102
RTVSPost2010Prop47
 90
       50
102
RTVSPost2010PropOp47
 70
     1
102
RTVSPost2010Prop48
 90
       50
102
RTVSPost2010PropOp48
 70
     1
102
RTVSPost2010Prop49
280
     0
102
RTVSPost2010PropOp49
 70
     1
102
RTVSPost2010Prop50
 90
       50
102
RTVSPost2010PropOp50
 70
     1
102
RTVSPost2010Prop51ColorIndex
 90
      256
102
RTVSPost2010Prop51ColorRGB
 90
-16777216
102
RTVSPost2010PropOp51
 70
     0
102
RTVSPost2010Prop52
140
1.0
102
RTVSPost2010PropOp52
 70
     0
102
RTVSPost2010Prop53
 90
        2
102
RTVSPost2010PropOp53
 70
     1
102
RTVSPost2010Prop54
  1
strokes_ogs.tif
102
RTVSPost2010PropOp54
 70
     1
102
RTVSPost2010Prop55
280
     0
102
RTVSPost2010PropOp55
 70
     1
102
RTVSPost2010Prop56
140
1.0
102
RTVSPost2010PropOp56
 70
     1
102
RTVSPost2010Prop57
140
1.0
102
RTVSPost2010PropOp57
 70
     1
102
RTVSPropertyOp0
 70
     1
102
RTVSPropertyOp1
 70
     1
102
RTVSPropertyOp2
 70
     1
102
RTVSPropertyOp3
 70
     1
102
RTVSPropertyOp4
 70
     1
102
RTVSPropertyOp5
 70
     1
102
RTVSPropertyOp6
 70
     1
102
RTVSPropertyOp7
 70
     1
102
RTVSPropertyOp8
 70
     1
102
RTVSPropertyOp9
 70
     1
102
RTVSPropertyOp10
 70
     1
102
RTVSPropertyOp11
 70
     1
102
RTVSPropertyOp12
 70
     1
102
RTVSPropertyOp13
 70
     1
102
RTVSPropertyOp14
 70
     1
102
RTVSPropertyOp15
 70
     1
102
RTVSPropertyOp16
 70
     1
102
RTVSPropertyOp17
 70
     1
102
RTVSPropertyOp18
 70
     1
102
RTVSPropertyOp19
 70
     1
102
RTVSPropertyOp20
 70
     1
102
RTVSPropertyOp21
 70
     1
102
RTVSPropertyOp22
 70
     1
102
RTVSPropertyOp23
 70
     1
102
RTVSPropertyOp24
 70
     1
102
RTVSPropertyOp25
 70
     1
102
RTVSPropertyOp26
 70
     1
102
RTVSPropertyOp27
 70
     1
102
RTVSPropertyOp28
 70
     1
102
RTVSPropertyOp29
 70
     1
102
RTVSPropertyOp30
 70
     1
102
RTVSPropertyOp31
 70
     1
102
RTVSPropertyOp32
 70
     1
102
RTVSPropertyOp33
 70
     1
102
RTVSPropertyOp34
 70
     1
102
RTVSPropertyOp35
 70
     1
102
RTVSPropertyOp36
 70
     1
102
RTVSPropertyOp37
 70
     1
102
RTVSPropertyOp38
 70
     1
102
RTVSPropertyOp39
 70
     1
102
RTVSPropertyOp40
 70
     1
102
RTVSPropertyOp41
 70
     1
102
RTVSPropertyOp42
 70
     1
102
RTVSPropertyOp43
 70
     1
102
RTVSPropertyOp44
 70
     1
102
RTVSPropertyOp45
 70
     1
102
RTVSPropertyOp46
 70
     1
102
RTVSPropertyOp47
 70
     1
102
RTVSPropertyOp48
 70
     1
102
RTVSPropertyOp49
 70
     1
102
RTVSPropertyOp50
 70
     1
102
RTVSPropertyOp51
 70
     0
102
RTVSPropertyOp52
 70
     0
102
RTVSPropertyOp53
 70
     1
102
RTVSPropertyOp54
 70
     1
102
RTVSPropertyOp55
 70
     1
102
RTVSPropertyOp56
 70
     1
102
RTVSPropertyOp57
 70
     1
102
RTVSPropertyOp58
 70
     1
102
RTVSPropertyOp59
 70
     1
102
RTVSPropertyOp60
 70
     1
102
RTVSPropertyOp61
 70
     1
102
RTVSPropertyOp62
 70
     1
  0
XRECORD
  5
86EB5
102
{ACAD_REACTORS
330
86EB4
102
}
330
86EB4
100
AcDbXrecord
280
     1
102
RTVSPost2010Prop28
280
     0
102
RTVSPost2010PropOp28
 70
     1
102
RTVSPost2010Prop29
280
     1
102
RTVSPost2010PropOp29
 70
     1
102
RTVSPost2010Prop30
280
     1
102
RTVSPost2010PropOp30
 70
     1
102
RTVSPost2010Prop31
280
     0
102
RTVSPost2010PropOp31
 70
     1
102
RTVSPost2010Prop32
280
     0
102
RTVSPost2010PropOp32
 70
     1
102
RTVSPost2010Prop33
280
     0
102
RTVSPost2010PropOp33
 70
     1
102
RTVSPost2010Prop34
280
     0
102
RTVSPost2010PropOp34
 70
     1
102
RTVSPost2010Prop35
280
     0
102
RTVSPost2010PropOp35
 70
     1
102
RTVSPost2010Prop36
280
     0
102
RTVSPost2010PropOp36
 70
     1
102
RTVSPost2010Prop37
 90
       50
102
RTVSPost2010PropOp37
 70
     1
102
RTVSPost2010Prop38
140
0.0
102
RTVSPost2010PropOp38
 70
     1
102
RTVSPost2010Prop39
140
1.0
102
RTVSPost2010PropOp39
 70
     1
102
RTVSPost2010Prop40
 90
        0
102
RTVSPost2010PropOp40
 70
     1
102
RTVSPost2010Prop41ColorIndex
 90
       18
102
RTVSPost2010Prop41ColorRGB
 90
        0
102
RTVSPost2010PropOp41
 70
     1
102
RTVSPost2010Prop42
 90
       50
102
RTVSPost2010PropOp42
 70
     1
102
RTVSPost2010Prop43
 90
        3
102
RTVSPost2010PropOp43
 70
     1
102
RTVSPost2010Prop44ColorIndex
 90
        5
102
RTVSPost2010Prop44ColorRGB
 90
      255
102
RTVSPost2010PropOp44
 70
     1
102
RTVSPost2010Prop45
280
     0
102
RTVSPost2010PropOp45
 70
     1
102
RTVSPost2010Prop46
 90
       50
102
RTVSPost2010PropOp46
 70
     1
102
RTVSPost2010Prop47
 90
       50
102
RTVSPost2010PropOp47
 70
     1
102
RTVSPost2010Prop48
 90
       50
102
RTVSPost2010PropOp48
 70
     1
102
RTVSPost2010Prop49
280
     0
102
RTVSPost2010PropOp49
 70
     1
102
RTVSPost2010Prop50
 90
       50
102
RTVSPost2010PropOp50
 70
     1
102
RTVSPost2010Prop51ColorIndex
 90
      256
102
RTVSPost2010Prop51ColorRGB
 90
-16777216
102
RTVSPost2010PropOp51
 70
     0
102
RTVSPost2010Prop52
140
1.0
102
RTVSPost2010PropOp52
 70
     0
102
RTVSPost2010Prop53
 90
        2
102
RTVSPost2010PropOp53
 70
     1
102
RTVSPost2010Prop54
  1
strokes_ogs.tif
102
RTVSPost2010PropOp54
 70
     1
102
RTVSPost2010Prop55
280
     0
102
RTVSPost2010PropOp55
 70
     1
102
RTVSPost2010Prop56
140
1.0
102
RTVSPost2010PropOp56
 70
     1
102
RTVSPost2010Prop57
140
1.0
102
RTVSPost2010PropOp57
 70
     1
102
RTVSPropertyOp0
 70
     0
102
RTVSPropertyOp1
 70
     0
102
RTVSPropertyOp2
 70
     0
102
RTVSPropertyOp3
 70
     0
102
RTVSPropertyOp4
 70
     0
102
RTVSPropertyOp5
 70
     0
102
RTVSPropertyOp6
 70
     0
102
RTVSPropertyOp7
 70
     0
102
RTVSPropertyOp8
 70
     0
102
RTVSPropertyOp9
 70
     0
102
RTVSPropertyOp10
 70
     0
102
RTVSPropertyOp11
 70
     0
102
RTVSPropertyOp12
 70
     0
102
RTVSPropertyOp13
 70
     0
102
RTVSPropertyOp14
 70
     2
102
RTVSPropertyOp15
 70
     0
102
RTVSPropertyOp16
 70
     0
102
RTVSPropertyOp17
 70
     0
102
RTVSPropertyOp18
 70
     0
102
RTVSPropertyOp19
 70
     0
102
RTVSPropertyOp20
 70
     0
102
RTVSPropertyOp21
 70
     0
102
RTVSPropertyOp22
 70
     0
102
RTVSPropertyOp23
 70
     0
102
RTVSPropertyOp24
 70
     0
102
RTVSPropertyOp25
 70
     0
102
RTVSPropertyOp26
 70
     0
102
RTVSPropertyOp27
 70
     0
102
RTVSPropertyOp28
 70
     1
102
RTVSPropertyOp29
 70
     1
102
RTVSPropertyOp30
 70
     1
102
RTVSPropertyOp31
 70
     1
102
RTVSPropertyOp32
 70
     1
102
RTVSPropertyOp33
 70
     1
102
RTVSPropertyOp34
 70
     1
102
RTVSPropertyOp35
 70
     1
102
RTVSPropertyOp36
 70
     1
102
RTVSPropertyOp37
 70
     1
102
RTVSPropertyOp38
 70
     1
102
RTVSPropertyOp39
 70
     1
102
RTVSPropertyOp40
 70
     1
102
RTVSPropertyOp41
 70
     1
102
RTVSPropertyOp42
 70
     1
102
RTVSPropertyOp43
 70
     1
102
RTVSPropertyOp44
 70
     1
102
RTVSPropertyOp45
 70
     1
102
RTVSPropertyOp46
 70
     1
102
RTVSPropertyOp47
 70
     1
102
RTVSPropertyOp48
 70
     1
102
RTVSPropertyOp49
 70
     1
102
RTVSPropertyOp50
 70
     1
102
RTVSPropertyOp51
 70
     0
102
RTVSPropertyOp52
 70
     0
102
RTVSPropertyOp53
 70
     1
102
RTVSPropertyOp54
 70
     1
102
RTVSPropertyOp55
 70
     1
102
RTVSPropertyOp56
 70
     1
102
RTVSPropertyOp57
 70
     1
102
RTVSPropertyOp58
 70
     1
102
RTVSPropertyOp59
 70
     1
102
RTVSPropertyOp60
 70
     1
102
RTVSPropertyOp61
 70
     1
102
RTVSPropertyOp62
 70
     1
  0
XRECORD
  5
86EA5
102
{ACAD_REACTORS
330
86EA4
102
}
330
86EA4
100
AcDbXrecord
280
     1
102
RTVSPost2010Prop28
280
     0
102
RTVSPost2010PropOp28
 70
     1
102
RTVSPost2010Prop29
280
     1
102
RTVSPost2010PropOp29
 70
     1
102
RTVSPost2010Prop30
280
     1
102
RTVSPost2010PropOp30
 70
     1
102
RTVSPost2010Prop31
280
     0
102
RTVSPost2010PropOp31
 70
     1
102
RTVSPost2010Prop32
280
     0
102
RTVSPost2010PropOp32
 70
     1
102
RTVSPost2010Prop33
280
     0
102
RTVSPost2010PropOp33
 70
     1
102
RTVSPost2010Prop34
280
     0
102
RTVSPost2010PropOp34
 70
     1
102
RTVSPost2010Prop35
280
     0
102
RTVSPost2010PropOp35
 70
     1
102
RTVSPost2010Prop36
280
     0
102
RTVSPost2010PropOp36
 70
     1
102
RTVSPost2010Prop37
 90
       50
102
RTVSPost2010PropOp37
 70
     1
102
RTVSPost2010Prop38
140
0.0
102
RTVSPost2010PropOp38
 70
     1
102
RTVSPost2010Prop39
140
1.0
102
RTVSPost2010PropOp39
 70
     1
102
RTVSPost2010Prop40
 90
        0
102
RTVSPost2010PropOp40
 70
     1
102
RTVSPost2010Prop41ColorIndex
 90
       18
102
RTVSPost2010Prop41ColorRGB
 90
        0
102
RTVSPost2010PropOp41
 70
     1
102
RTVSPost2010Prop42
 90
       50
102
RTVSPost2010PropOp42
 70
     1
102
RTVSPost2010Prop43
 90
        3
102
RTVSPost2010PropOp43
 70
     1
102
RTVSPost2010Prop44ColorIndex
 90
        5
102
RTVSPost2010Prop44ColorRGB
 90
      255
102
RTVSPost2010PropOp44
 70
     1
102
RTVSPost2010Prop45
280
     0
102
RTVSPost2010PropOp45
 70
     1
102
RTVSPost2010Prop46
 90
       50
102
RTVSPost2010PropOp46
 70
     1
102
RTVSPost2010Prop47
 90
       50
102
RTVSPost2010PropOp47
 70
     1
102
RTVSPost2010Prop48
 90
       50
102
RTVSPost2010PropOp48
 70
     1
102
RTVSPost2010Prop49
280
     0
102
RTVSPost2010PropOp49
 70
     1
102
RTVSPost2010Prop50
 90
       50
102
RTVSPost2010PropOp50
 70
     1
102
RTVSPost2010Prop51ColorIndex
 90
      256
102
RTVSPost2010Prop51ColorRGB
 90
-16777216
102
RTVSPost2010PropOp51
 70
     0
102
RTVSPost2010Prop52
140
1.0
102
RTVSPost2010PropOp52
 70
     0
102
RTVSPost2010Prop53
 90
        2
102
RTVSPost2010PropOp53
 70
     1
102
RTVSPost2010Prop54
  1
strokes_ogs.tif
102
RTVSPost2010PropOp54
 70
     1
102
RTVSPost2010Prop55
280
     0
102
RTVSPost2010PropOp55
 70
     1
102
RTVSPost2010Prop56
140
1.0
102
RTVSPost2010PropOp56
 70
     1
102
RTVSPost2010Prop57
140
1.0
102
RTVSPost2010PropOp57
 70
     1
102
RTVSPropertyOp0
 70
     1
102
RTVSPropertyOp1
 70
     1
102
RTVSPropertyOp2
 70
     1
102
RTVSPropertyOp3
 70
     1
102
RTVSPropertyOp4
 70
     1
102
RTVSPropertyOp5
 70
     1
102
RTVSPropertyOp6
 70
     1
102
RTVSPropertyOp7
 70
     1
102
RTVSPropertyOp8
 70
     1
102
RTVSPropertyOp9
 70
     1
102
RTVSPropertyOp10
 70
     1
102
RTVSPropertyOp11
 70
     1
102
RTVSPropertyOp12
 70
     1
102
RTVSPropertyOp13
 70
     1
102
RTVSPropertyOp14
 70
     1
102
RTVSPropertyOp15
 70
     1
102
RTVSPropertyOp16
 70
     1
102
RTVSPropertyOp17
 70
     1
102
RTVSPropertyOp18
 70
     1
102
RTVSPropertyOp19
 70
     1
102
RTVSPropertyOp20
 70
     1
102
RTVSPropertyOp21
 70
     1
102
RTVSPropertyOp22
 70
     1
102
RTVSPropertyOp23
 70
     1
102
RTVSPropertyOp24
 70
     1
102
RTVSPropertyOp25
 70
     1
102
RTVSPropertyOp26
 70
     1
102
RTVSPropertyOp27
 70
     1
102
RTVSPropertyOp28
 70
     1
102
RTVSPropertyOp29
 70
     1
102
RTVSPropertyOp30
 70
     1
102
RTVSPropertyOp31
 70
     1
102
RTVSPropertyOp32
 70
     1
102
RTVSPropertyOp33
 70
     1
102
RTVSPropertyOp34
 70
     1
102
RTVSPropertyOp35
 70
     1
102
RTVSPropertyOp36
 70
     1
102
RTVSPropertyOp37
 70
     1
102
RTVSPropertyOp38
 70
     1
102
RTVSPropertyOp39
 70
     1
102
RTVSPropertyOp40
 70
     1
102
RTVSPropertyOp41
 70
     1
102
RTVSPropertyOp42
 70
     1
102
RTVSPropertyOp43
 70
     1
102
RTVSPropertyOp44
 70
     1
102
RTVSPropertyOp45
 70
     1
102
RTVSPropertyOp46
 70
     1
102
RTVSPropertyOp47
 70
     1
102
RTVSPropertyOp48
 70
     1
102
RTVSPropertyOp49
 70
     1
102
RTVSPropertyOp50
 70
     1
102
RTVSPropertyOp51
 70
     0
102
RTVSPropertyOp52
 70
     0
102
RTVSPropertyOp53
 70
     1
102
RTVSPropertyOp54
 70
     1
102
RTVSPropertyOp55
 70
     1
102
RTVSPropertyOp56
 70
     1
102
RTVSPropertyOp57
 70
     1
102
RTVSPropertyOp58
 70
     1
102
RTVSPropertyOp59
 70
     1
102
RTVSPropertyOp60
 70
     1
102
RTVSPropertyOp61
 70
     1
102
RTVSPropertyOp62
 70
     1
  0
XRECORD
  5
86EC5
102
{ACAD_REACTORS
330
86EC4
102
}
330
86EC4
100
AcDbXrecord
280
     1
102
RTVSPost2010Prop28
280
     0
102
RTVSPost2010PropOp28
 70
     1
102
RTVSPost2010Prop29
280
     1
102
RTVSPost2010PropOp29
 70
     1
102
RTVSPost2010Prop30
280
     1
102
RTVSPost2010PropOp30
 70
     1
102
RTVSPost2010Prop31
280
     0
102
RTVSPost2010PropOp31
 70
     1
102
RTVSPost2010Prop32
280
     0
102
RTVSPost2010PropOp32
 70
     1
102
RTVSPost2010Prop33
280
     0
102
RTVSPost2010PropOp33
 70
     1
102
RTVSPost2010Prop34
280
     0
102
RTVSPost2010PropOp34
 70
     1
102
RTVSPost2010Prop35
280
     0
102
RTVSPost2010PropOp35
 70
     1
102
RTVSPost2010Prop36
280
     0
102
RTVSPost2010PropOp36
 70
     1
102
RTVSPost2010Prop37
 90
       50
102
RTVSPost2010PropOp37
 70
     1
102
RTVSPost2010Prop38
140
0.0
102
RTVSPost2010PropOp38
 70
     1
102
RTVSPost2010Prop39
140
1.0
102
RTVSPost2010PropOp39
 70
     1
102
RTVSPost2010Prop40
 90
        0
102
RTVSPost2010PropOp40
 70
     1
102
RTVSPost2010Prop41ColorIndex
 90
       18
102
RTVSPost2010Prop41ColorRGB
 90
        0
102
RTVSPost2010PropOp41
 70
     1
102
RTVSPost2010Prop42
 90
       50
102
RTVSPost2010PropOp42
 70
     1
102
RTVSPost2010Prop43
 90
        3
102
RTVSPost2010PropOp43
 70
     1
102
RTVSPost2010Prop44ColorIndex
 90
        5
102
RTVSPost2010Prop44ColorRGB
 90
      255
102
RTVSPost2010PropOp44
 70
     1
102
RTVSPost2010Prop45
280
     0
102
RTVSPost2010PropOp45
 70
     1
102
RTVSPost2010Prop46
 90
       50
102
RTVSPost2010PropOp46
 70
     1
102
RTVSPost2010Prop47
 90
       50
102
RTVSPost2010PropOp47
 70
     1
102
RTVSPost2010Prop48
 90
       50
102
RTVSPost2010PropOp48
 70
     1
102
RTVSPost2010Prop49
280
     0
102
RTVSPost2010PropOp49
 70
     1
102
RTVSPost2010Prop50
 90
       50
102
RTVSPost2010PropOp50
 70
     1
102
RTVSPost2010Prop51ColorIndex
 90
      256
102
RTVSPost2010Prop51ColorRGB
 90
-16777216
102
RTVSPost2010PropOp51
 70
     0
102
RTVSPost2010Prop52
140
1.0
102
RTVSPost2010PropOp52
 70
     0
102
RTVSPost2010Prop53
 90
        2
102
RTVSPost2010PropOp53
 70
     1
102
RTVSPost2010Prop54
  1
strokes_ogs.tif
102
RTVSPost2010PropOp54
 70
     1
102
RTVSPost2010Prop55
280
     0
102
RTVSPost2010PropOp55
 70
     1
102
RTVSPost2010Prop56
140
1.0
102
RTVSPost2010PropOp56
 70
     1
102
RTVSPost2010Prop57
140
1.0
102
RTVSPost2010PropOp57
 70
     1
102
RTVSPropertyOp0
 70
     1
102
RTVSPropertyOp1
 70
     1
102
RTVSPropertyOp2
 70
     1
102
RTVSPropertyOp3
 70
     1
102
RTVSPropertyOp4
 70
     1
102
RTVSPropertyOp5
 70
     1
102
RTVSPropertyOp6
 70
     1
102
RTVSPropertyOp7
 70
     1
102
RTVSPropertyOp8
 70
     1
102
RTVSPropertyOp9
 70
     1
102
RTVSPropertyOp10
 70
     1
102
RTVSPropertyOp11
 70
     1
102
RTVSPropertyOp12
 70
     1
102
RTVSPropertyOp13
 70
     1
102
RTVSPropertyOp14
 70
     1
102
RTVSPropertyOp15
 70
     1
102
RTVSPropertyOp16
 70
     1
102
RTVSPropertyOp17
 70
     1
102
RTVSPropertyOp18
 70
     1
102
RTVSPropertyOp19
 70
     1
102
RTVSPropertyOp20
 70
     1
102
RTVSPropertyOp21
 70
     1
102
RTVSPropertyOp22
 70
     1
102
RTVSPropertyOp23
 70
     1
102
RTVSPropertyOp24
 70
     1
102
RTVSPropertyOp25
 70
     1
102
RTVSPropertyOp26
 70
     1
102
RTVSPropertyOp27
 70
     1
102
RTVSPropertyOp28
 70
     1
102
RTVSPropertyOp29
 70
     1
102
RTVSPropertyOp30
 70
     1
102
RTVSPropertyOp31
 70
     1
102
RTVSPropertyOp32
 70
     1
102
RTVSPropertyOp33
 70
     1
102
RTVSPropertyOp34
 70
     1
102
RTVSPropertyOp35
 70
     1
102
RTVSPropertyOp36
 70
     1
102
RTVSPropertyOp37
 70
     1
102
RTVSPropertyOp38
 70
     1
102
RTVSPropertyOp39
 70
     1
102
RTVSPropertyOp40
 70
     1
102
RTVSPropertyOp41
 70
     1
102
RTVSPropertyOp42
 70
     1
102
RTVSPropertyOp43
 70
     1
102
RTVSPropertyOp44
 70
     1
102
RTVSPropertyOp45
 70
     1
102
RTVSPropertyOp46
 70
     1
102
RTVSPropertyOp47
 70
     1
102
RTVSPropertyOp48
 70
     1
102
RTVSPropertyOp49
 70
     1
102
RTVSPropertyOp50
 70
     1
102
RTVSPropertyOp51
 70
     0
102
RTVSPropertyOp52
 70
     0
102
RTVSPropertyOp53
 70
     1
102
RTVSPropertyOp54
 70
     1
102
RTVSPropertyOp55
 70
     1
102
RTVSPropertyOp56
 70
     1
102
RTVSPropertyOp57
 70
     1
102
RTVSPropertyOp58
 70
     1
102
RTVSPropertyOp59
 70
     1
102
RTVSPropertyOp60
 70
     1
102
RTVSPropertyOp61
 70
     1
102
RTVSPropertyOp62
 70
     1
  0
XRECORD
  5
86EC3
102
{ACAD_REACTORS
330
86EC2
102
}
330
86EC2
100
AcDbXrecord
280
     1
102
RTVSPost2010Prop28
280
     0
102
RTVSPost2010PropOp28
 70
     1
102
RTVSPost2010Prop29
280
     1
102
RTVSPost2010PropOp29
 70
     1
102
RTVSPost2010Prop30
280
     1
102
RTVSPost2010PropOp30
 70
     1
102
RTVSPost2010Prop31
280
     0
102
RTVSPost2010PropOp31
 70
     1
102
RTVSPost2010Prop32
280
     0
102
RTVSPost2010PropOp32
 70
     1
102
RTVSPost2010Prop33
280
     0
102
RTVSPost2010PropOp33
 70
     1
102
RTVSPost2010Prop34
280
     0
102
RTVSPost2010PropOp34
 70
     1
102
RTVSPost2010Prop35
280
     0
102
RTVSPost2010PropOp35
 70
     1
102
RTVSPost2010Prop36
280
     0
102
RTVSPost2010PropOp36
 70
     1
102
RTVSPost2010Prop37
 90
       50
102
RTVSPost2010PropOp37
 70
     1
102
RTVSPost2010Prop38
140
0.0
102
RTVSPost2010PropOp38
 70
     1
102
RTVSPost2010Prop39
140
1.0
102
RTVSPost2010PropOp39
 70
     1
102
RTVSPost2010Prop40
 90
        0
102
RTVSPost2010PropOp40
 70
     1
102
RTVSPost2010Prop41ColorIndex
 90
       18
102
RTVSPost2010Prop41ColorRGB
 90
        0
102
RTVSPost2010PropOp41
 70
     1
102
RTVSPost2010Prop42
 90
       50
102
RTVSPost2010PropOp42
 70
     1
102
RTVSPost2010Prop43
 90
        3
102
RTVSPost2010PropOp43
 70
     1
102
RTVSPost2010Prop44ColorIndex
 90
        5
102
RTVSPost2010Prop44ColorRGB
 90
      255
102
RTVSPost2010PropOp44
 70
     1
102
RTVSPost2010Prop45
280
     0
102
RTVSPost2010PropOp45
 70
     1
102
RTVSPost2010Prop46
 90
       50
102
RTVSPost2010PropOp46
 70
     1
102
RTVSPost2010Prop47
 90
       50
102
RTVSPost2010PropOp47
 70
     1
102
RTVSPost2010Prop48
 90
       50
102
RTVSPost2010PropOp48
 70
     1
102
RTVSPost2010Prop49
280
     0
102
RTVSPost2010PropOp49
 70
     1
102
RTVSPost2010Prop50
 90
       50
102
RTVSPost2010PropOp50
 70
     1
102
RTVSPost2010Prop51ColorIndex
 90
      256
102
RTVSPost2010Prop51ColorRGB
 90
-16777216
102
RTVSPost2010PropOp51
 70
     0
102
RTVSPost2010Prop52
140
1.0
102
RTVSPost2010PropOp52
 70
     0
102
RTVSPost2010Prop53
 90
        2
102
RTVSPost2010PropOp53
 70
     1
102
RTVSPost2010Prop54
  1
strokes_ogs.tif
102
RTVSPost2010PropOp54
 70
     1
102
RTVSPost2010Prop55
280
     0
102
RTVSPost2010PropOp55
 70
     1
102
RTVSPost2010Prop56
140
1.0
102
RTVSPost2010PropOp56
 70
     1
102
RTVSPost2010Prop57
140
1.0
102
RTVSPost2010PropOp57
 70
     1
102
RTVSPropertyOp0
 70
     1
102
RTVSPropertyOp1
 70
     1
102
RTVSPropertyOp2
 70
     1
102
RTVSPropertyOp3
 70
     1
102
RTVSPropertyOp4
 70
     1
102
RTVSPropertyOp5
 70
     1
102
RTVSPropertyOp6
 70
     1
102
RTVSPropertyOp7
 70
     1
102
RTVSPropertyOp8
 70
     1
102
RTVSPropertyOp9
 70
     1
102
RTVSPropertyOp10
 70
     1
102
RTVSPropertyOp11
 70
     1
102
RTVSPropertyOp12
 70
     1
102
RTVSPropertyOp13
 70
     1
102
RTVSPropertyOp14
 70
     1
102
RTVSPropertyOp15
 70
     1
102
RTVSPropertyOp16
 70
     1
102
RTVSPropertyOp17
 70
     1
102
RTVSPropertyOp18
 70
     1
102
RTVSPropertyOp19
 70
     1
102
RTVSPropertyOp20
 70
     1
102
RTVSPropertyOp21
 70
     1
102
RTVSPropertyOp22
 70
     1
102
RTVSPropertyOp23
 70
     1
102
RTVSPropertyOp24
 70
     1
102
RTVSPropertyOp25
 70
     1
102
RTVSPropertyOp26
 70
     1
102
RTVSPropertyOp27
 70
     1
102
RTVSPropertyOp28
 70
     1
102
RTVSPropertyOp29
 70
     1
102
RTVSPropertyOp30
 70
     1
102
RTVSPropertyOp31
 70
     1
102
RTVSPropertyOp32
 70
     1
102
RTVSPropertyOp33
 70
     1
102
RTVSPropertyOp34
 70
     1
102
RTVSPropertyOp35
 70
     1
102
RTVSPropertyOp36
 70
     1
102
RTVSPropertyOp37
 70
     1
102
RTVSPropertyOp38
 70
     1
102
RTVSPropertyOp39
 70
     1
102
RTVSPropertyOp40
 70
     1
102
RTVSPropertyOp41
 70
     1
102
RTVSPropertyOp42
 70
     1
102
RTVSPropertyOp43
 70
     1
102
RTVSPropertyOp44
 70
     1
102
RTVSPropertyOp45
 70
     1
102
RTVSPropertyOp46
 70
     1
102
RTVSPropertyOp47
 70
     1
102
RTVSPropertyOp48
 70
     1
102
RTVSPropertyOp49
 70
     1
102
RTVSPropertyOp50
 70
     1
102
RTVSPropertyOp51
 70
     0
102
RTVSPropertyOp52
 70
     0
102
RTVSPropertyOp53
 70
     1
102
RTVSPropertyOp54
 70
     1
102
RTVSPropertyOp55
 70
     1
102
RTVSPropertyOp56
 70
     1
102
RTVSPropertyOp57
 70
     1
102
RTVSPropertyOp58
 70
     1
102
RTVSPropertyOp59
 70
     1
102
RTVSPropertyOp60
 70
     1
102
RTVSPropertyOp61
 70
     1
102
RTVSPropertyOp62
 70
     1
  0
XRECORD
  5
86EBD
102
{ACAD_REACTORS
330
86EBC
102
}
330
86EBC
100
AcDbXrecord
280
     1
102
RTVSPost2010Prop28
280
     0
102
RTVSPost2010PropOp28
 70
     1
102
RTVSPost2010Prop29
280
     1
102
RTVSPost2010PropOp29
 70
     1
102
RTVSPost2010Prop30
280
     1
102
RTVSPost2010PropOp30
 70
     1
102
RTVSPost2010Prop31
280
     0
102
RTVSPost2010PropOp31
 70
     1
102
RTVSPost2010Prop32
280
     0
102
RTVSPost2010PropOp32
 70
     1
102
RTVSPost2010Prop33
280
     0
102
RTVSPost2010PropOp33
 70
     1
102
RTVSPost2010Prop34
280
     0
102
RTVSPost2010PropOp34
 70
     1
102
RTVSPost2010Prop35
280
     0
102
RTVSPost2010PropOp35
 70
     1
102
RTVSPost2010Prop36
280
     0
102
RTVSPost2010PropOp36
 70
     1
102
RTVSPost2010Prop37
 90
       50
102
RTVSPost2010PropOp37
 70
     1
102
RTVSPost2010Prop38
140
0.0
102
RTVSPost2010PropOp38
 70
     1
102
RTVSPost2010Prop39
140
1.0
102
RTVSPost2010PropOp39
 70
     1
102
RTVSPost2010Prop40
 90
        0
102
RTVSPost2010PropOp40
 70
     1
102
RTVSPost2010Prop41ColorIndex
 90
       18
102
RTVSPost2010Prop41ColorRGB
 90
        0
102
RTVSPost2010PropOp41
 70
     1
102
RTVSPost2010Prop42
 90
       50
102
RTVSPost2010PropOp42
 70
     1
102
RTVSPost2010Prop43
 90
        3
102
RTVSPost2010PropOp43
 70
     1
102
RTVSPost2010Prop44ColorIndex
 90
        5
102
RTVSPost2010Prop44ColorRGB
 90
      255
102
RTVSPost2010PropOp44
 70
     1
102
RTVSPost2010Prop45
280
     0
102
RTVSPost2010PropOp45
 70
     1
102
RTVSPost2010Prop46
 90
       50
102
RTVSPost2010PropOp46
 70
     1
102
RTVSPost2010Prop47
 90
       50
102
RTVSPost2010PropOp47
 70
     1
102
RTVSPost2010Prop48
 90
       50
102
RTVSPost2010PropOp48
 70
     1
102
RTVSPost2010Prop49
280
     0
102
RTVSPost2010PropOp49
 70
     1
102
RTVSPost2010Prop50
 90
       50
102
RTVSPost2010PropOp50
 70
     1
102
RTVSPost2010Prop51ColorIndex
 90
      256
102
RTVSPost2010Prop51ColorRGB
 90
-16777216
102
RTVSPost2010PropOp51
 70
     0
102
RTVSPost2010Prop52
140
1.0
102
RTVSPost2010PropOp52
 70
     0
102
RTVSPost2010Prop53
 90
        2
102
RTVSPost2010PropOp53
 70
     1
102
RTVSPost2010Prop54
  1
strokes_ogs.tif
102
RTVSPost2010PropOp54
 70
     1
102
RTVSPost2010Prop55
280
     0
102
RTVSPost2010PropOp55
 70
     1
102
RTVSPost2010Prop56
140
1.0
102
RTVSPost2010PropOp56
 70
     1
102
RTVSPost2010Prop57
140
1.0
102
RTVSPost2010PropOp57
 70
     1
102
RTVSPropertyOp0
 70
     1
102
RTVSPropertyOp1
 70
     1
102
RTVSPropertyOp2
 70
     1
102
RTVSPropertyOp3
 70
     1
102
RTVSPropertyOp4
 70
     1
102
RTVSPropertyOp5
 70
     1
102
RTVSPropertyOp6
 70
     1
102
RTVSPropertyOp7
 70
     1
102
RTVSPropertyOp8
 70
     1
102
RTVSPropertyOp9
 70
     1
102
RTVSPropertyOp10
 70
     1
102
RTVSPropertyOp11
 70
     1
102
RTVSPropertyOp12
 70
     1
102
RTVSPropertyOp13
 70
     1
102
RTVSPropertyOp14
 70
     1
102
RTVSPropertyOp15
 70
     1
102
RTVSPropertyOp16
 70
     1
102
RTVSPropertyOp17
 70
     1
102
RTVSPropertyOp18
 70
     1
102
RTVSPropertyOp19
 70
     1
102
RTVSPropertyOp20
 70
     1
102
RTVSPropertyOp21
 70
     1
102
RTVSPropertyOp22
 70
     1
102
RTVSPropertyOp23
 70
     1
102
RTVSPropertyOp24
 70
     1
102
RTVSPropertyOp25
 70
     1
102
RTVSPropertyOp26
 70
     1
102
RTVSPropertyOp27
 70
     1
102
RTVSPropertyOp28
 70
     1
102
RTVSPropertyOp29
 70
     1
102
RTVSPropertyOp30
 70
     1
102
RTVSPropertyOp31
 70
     1
102
RTVSPropertyOp32
 70
     1
102
RTVSPropertyOp33
 70
     1
102
RTVSPropertyOp34
 70
     1
102
RTVSPropertyOp35
 70
     1
102
RTVSPropertyOp36
 70
     1
102
RTVSPropertyOp37
 70
     1
102
RTVSPropertyOp38
 70
     1
102
RTVSPropertyOp39
 70
     1
102
RTVSPropertyOp40
 70
     1
102
RTVSPropertyOp41
 70
     1
102
RTVSPropertyOp42
 70
     1
102
RTVSPropertyOp43
 70
     1
102
RTVSPropertyOp44
 70
     1
102
RTVSPropertyOp45
 70
     1
102
RTVSPropertyOp46
 70
     1
102
RTVSPropertyOp47
 70
     1
102
RTVSPropertyOp48
 70
     1
102
RTVSPropertyOp49
 70
     1
102
RTVSPropertyOp50
 70
     1
102
RTVSPropertyOp51
 70
     0
102
RTVSPropertyOp52
 70
     0
102
RTVSPropertyOp53
 70
     1
102
RTVSPropertyOp54
 70
     1
102
RTVSPropertyOp55
 70
     1
102
RTVSPropertyOp56
 70
     1
102
RTVSPropertyOp57
 70
     1
102
RTVSPropertyOp58
 70
     1
102
RTVSPropertyOp59
 70
     1
102
RTVSPropertyOp60
 70
     1
102
RTVSPropertyOp61
 70
     1
102
RTVSPropertyOp62
 70
     1
  0
XRECORD
  5
86EBF
102
{ACAD_REACTORS
330
86EBE
102
}
330
86EBE
100
AcDbXrecord
280
     1
102
RTVSPost2010Prop28
280
     0
102
RTVSPost2010PropOp28
 70
     1
102
RTVSPost2010Prop29
280
     1
102
RTVSPost2010PropOp29
 70
     1
102
RTVSPost2010Prop30
280
     1
102
RTVSPost2010PropOp30
 70
     1
102
RTVSPost2010Prop31
280
     0
102
RTVSPost2010PropOp31
 70
     1
102
RTVSPost2010Prop32
280
     0
102
RTVSPost2010PropOp32
 70
     1
102
RTVSPost2010Prop33
280
     0
102
RTVSPost2010PropOp33
 70
     1
102
RTVSPost2010Prop34
280
     0
102
RTVSPost2010PropOp34
 70
     1
102
RTVSPost2010Prop35
280
     0
102
RTVSPost2010PropOp35
 70
     1
102
RTVSPost2010Prop36
280
     0
102
RTVSPost2010PropOp36
 70
     1
102
RTVSPost2010Prop37
 90
       50
102
RTVSPost2010PropOp37
 70
     1
102
RTVSPost2010Prop38
140
0.0
102
RTVSPost2010PropOp38
 70
     1
102
RTVSPost2010Prop39
140
1.0
102
RTVSPost2010PropOp39
 70
     1
102
RTVSPost2010Prop40
 90
        0
102
RTVSPost2010PropOp40
 70
     1
102
RTVSPost2010Prop41ColorIndex
 90
       18
102
RTVSPost2010Prop41ColorRGB
 90
        0
102
RTVSPost2010PropOp41
 70
     1
102
RTVSPost2010Prop42
 90
       50
102
RTVSPost2010PropOp42
 70
     1
102
RTVSPost2010Prop43
 90
        3
102
RTVSPost2010PropOp43
 70
     1
102
RTVSPost2010Prop44ColorIndex
 90
        5
102
RTVSPost2010Prop44ColorRGB
 90
      255
102
RTVSPost2010PropOp44
 70
     1
102
RTVSPost2010Prop45
280
     0
102
RTVSPost2010PropOp45
 70
     1
102
RTVSPost2010Prop46
 90
       50
102
RTVSPost2010PropOp46
 70
     1
102
RTVSPost2010Prop47
 90
       50
102
RTVSPost2010PropOp47
 70
     1
102
RTVSPost2010Prop48
 90
       50
102
RTVSPost2010PropOp48
 70
     1
102
RTVSPost2010Prop49
280
     0
102
RTVSPost2010PropOp49
 70
     1
102
RTVSPost2010Prop50
 90
       50
102
RTVSPost2010PropOp50
 70
     1
102
RTVSPost2010Prop51ColorIndex
 90
      256
102
RTVSPost2010Prop51ColorRGB
 90
-16777216
102
RTVSPost2010PropOp51
 70
     0
102
RTVSPost2010Prop52
140
1.0
102
RTVSPost2010PropOp52
 70
     0
102
RTVSPost2010Prop53
 90
        2
102
RTVSPost2010PropOp53
 70
     1
102
RTVSPost2010Prop54
  1
strokes_ogs.tif
102
RTVSPost2010PropOp54
 70
     1
102
RTVSPost2010Prop55
280
     0
102
RTVSPost2010PropOp55
 70
     1
102
RTVSPost2010Prop56
140
1.0
102
RTVSPost2010PropOp56
 70
     1
102
RTVSPost2010Prop57
140
1.0
102
RTVSPost2010PropOp57
 70
     1
102
RTVSPropertyOp0
 70
     1
102
RTVSPropertyOp1
 70
     1
102
RTVSPropertyOp2
 70
     1
102
RTVSPropertyOp3
 70
     1
102
RTVSPropertyOp4
 70
     1
102
RTVSPropertyOp5
 70
     1
102
RTVSPropertyOp6
 70
     1
102
RTVSPropertyOp7
 70
     1
102
RTVSPropertyOp8
 70
     1
102
RTVSPropertyOp9
 70
     1
102
RTVSPropertyOp10
 70
     1
102
RTVSPropertyOp11
 70
     1
102
RTVSPropertyOp12
 70
     1
102
RTVSPropertyOp13
 70
     1
102
RTVSPropertyOp14
 70
     1
102
RTVSPropertyOp15
 70
     1
102
RTVSPropertyOp16
 70
     1
102
RTVSPropertyOp17
 70
     1
102
RTVSPropertyOp18
 70
     1
102
RTVSPropertyOp19
 70
     1
102
RTVSPropertyOp20
 70
     1
102
RTVSPropertyOp21
 70
     1
102
RTVSPropertyOp22
 70
     1
102
RTVSPropertyOp23
 70
     1
102
RTVSPropertyOp24
 70
     1
102
RTVSPropertyOp25
 70
     1
102
RTVSPropertyOp26
 70
     1
102
RTVSPropertyOp27
 70
     1
102
RTVSPropertyOp28
 70
     1
102
RTVSPropertyOp29
 70
     1
102
RTVSPropertyOp30
 70
     1
102
RTVSPropertyOp31
 70
     1
102
RTVSPropertyOp32
 70
     1
102
RTVSPropertyOp33
 70
     1
102
RTVSPropertyOp34
 70
     1
102
RTVSPropertyOp35
 70
     1
102
RTVSPropertyOp36
 70
     1
102
RTVSPropertyOp37
 70
     1
102
RTVSPropertyOp38
 70
     1
102
RTVSPropertyOp39
 70
     1
102
RTVSPropertyOp40
 70
     1
102
RTVSPropertyOp41
 70
     1
102
RTVSPropertyOp42
 70
     1
102
RTVSPropertyOp43
 70
     1
102
RTVSPropertyOp44
 70
     1
102
RTVSPropertyOp45
 70
     1
102
RTVSPropertyOp46
 70
     1
102
RTVSPropertyOp47
 70
     1
102
RTVSPropertyOp48
 70
     1
102
RTVSPropertyOp49
 70
     1
102
RTVSPropertyOp50
 70
     1
102
RTVSPropertyOp51
 70
     0
102
RTVSPropertyOp52
 70
     0
102
RTVSPropertyOp53
 70
     1
102
RTVSPropertyOp54
 70
     1
102
RTVSPropertyOp55
 70
     1
102
RTVSPropertyOp56
 70
     1
102
RTVSPropertyOp57
 70
     1
102
RTVSPropertyOp58
 70
     1
102
RTVSPropertyOp59
 70
     1
102
RTVSPropertyOp60
 70
     1
102
RTVSPropertyOp61
 70
     1
102
RTVSPropertyOp62
 70
     1
  0
XRECORD
  5
86EAB
102
{ACAD_REACTORS
330
86EAA
102
}
330
86EAA
100
AcDbXrecord
280
     1
102
RTVSPost2010Prop28
280
     0
102
RTVSPost2010PropOp28
 70
     1
102
RTVSPost2010Prop29
280
     1
102
RTVSPost2010PropOp29
 70
     1
102
RTVSPost2010Prop30
280
     1
102
RTVSPost2010PropOp30
 70
     1
102
RTVSPost2010Prop31
280
     0
102
RTVSPost2010PropOp31
 70
     1
102
RTVSPost2010Prop32
280
     0
102
RTVSPost2010PropOp32
 70
     1
102
RTVSPost2010Prop33
280
     0
102
RTVSPost2010PropOp33
 70
     1
102
RTVSPost2010Prop34
280
     0
102
RTVSPost2010PropOp34
 70
     1
102
RTVSPost2010Prop35
280
     0
102
RTVSPost2010PropOp35
 70
     1
102
RTVSPost2010Prop36
280
     0
102
RTVSPost2010PropOp36
 70
     1
102
RTVSPost2010Prop37
 90
       50
102
RTVSPost2010PropOp37
 70
     1
102
RTVSPost2010Prop38
140
0.0
102
RTVSPost2010PropOp38
 70
     1
102
RTVSPost2010Prop39
140
1.0
102
RTVSPost2010PropOp39
 70
     1
102
RTVSPost2010Prop40
 90
        0
102
RTVSPost2010PropOp40
 70
     1
102
RTVSPost2010Prop41ColorIndex
 90
       18
102
RTVSPost2010Prop41ColorRGB
 90
        0
102
RTVSPost2010PropOp41
 70
     1
102
RTVSPost2010Prop42
 90
       50
102
RTVSPost2010PropOp42
 70
     1
102
RTVSPost2010Prop43
 90
        3
102
RTVSPost2010PropOp43
 70
     1
102
RTVSPost2010Prop44ColorIndex
 90
        5
102
RTVSPost2010Prop44ColorRGB
 90
      255
102
RTVSPost2010PropOp44
 70
     1
102
RTVSPost2010Prop45
280
     0
102
RTVSPost2010PropOp45
 70
     1
102
RTVSPost2010Prop46
 90
       50
102
RTVSPost2010PropOp46
 70
     1
102
RTVSPost2010Prop47
 90
       50
102
RTVSPost2010PropOp47
 70
     1
102
RTVSPost2010Prop48
 90
       50
102
RTVSPost2010PropOp48
 70
     1
102
RTVSPost2010Prop49
280
     0
102
RTVSPost2010PropOp49
 70
     1
102
RTVSPost2010Prop50
 90
       50
102
RTVSPost2010PropOp50
 70
     1
102
RTVSPost2010Prop51ColorIndex
 90
      256
102
RTVSPost2010Prop51ColorRGB
 90
-16777216
102
RTVSPost2010PropOp51
 70
     0
102
RTVSPost2010Prop52
140
1.0
102
RTVSPost2010PropOp52
 70
     0
102
RTVSPost2010Prop53
 90
        2
102
RTVSPost2010PropOp53
 70
     1
102
RTVSPost2010Prop54
  1
strokes_ogs.tif
102
RTVSPost2010PropOp54
 70
     1
102
RTVSPost2010Prop55
280
     0
102
RTVSPost2010PropOp55
 70
     1
102
RTVSPost2010Prop56
140
1.0
102
RTVSPost2010PropOp56
 70
     1
102
RTVSPost2010Prop57
140
1.0
102
RTVSPost2010PropOp57
 70
     1
102
RTVSPropertyOp0
 70
     1
102
RTVSPropertyOp1
 70
     1
102
RTVSPropertyOp2
 70
     1
102
RTVSPropertyOp3
 70
     1
102
RTVSPropertyOp4
 70
     1
102
RTVSPropertyOp5
 70
     1
102
RTVSPropertyOp6
 70
     1
102
RTVSPropertyOp7
 70
     1
102
RTVSPropertyOp8
 70
     1
102
RTVSPropertyOp9
 70
     1
102
RTVSPropertyOp10
 70
     1
102
RTVSPropertyOp11
 70
     1
102
RTVSPropertyOp12
 70
     1
102
RTVSPropertyOp13
 70
     1
102
RTVSPropertyOp14
 70
     1
102
RTVSPropertyOp15
 70
     1
102
RTVSPropertyOp16
 70
     1
102
RTVSPropertyOp17
 70
     1
102
RTVSPropertyOp18
 70
     1
102
RTVSPropertyOp19
 70
     1
102
RTVSPropertyOp20
 70
     1
102
RTVSPropertyOp21
 70
     1
102
RTVSPropertyOp22
 70
     1
102
RTVSPropertyOp23
 70
     1
102
RTVSPropertyOp24
 70
     1
102
RTVSPropertyOp25
 70
     1
102
RTVSPropertyOp26
 70
     1
102
RTVSPropertyOp27
 70
     1
102
RTVSPropertyOp28
 70
     1
102
RTVSPropertyOp29
 70
     1
102
RTVSPropertyOp30
 70
     1
102
RTVSPropertyOp31
 70
     1
102
RTVSPropertyOp32
 70
     1
102
RTVSPropertyOp33
 70
     1
102
RTVSPropertyOp34
 70
     1
102
RTVSPropertyOp35
 70
     1
102
RTVSPropertyOp36
 70
     1
102
RTVSPropertyOp37
 70
     1
102
RTVSPropertyOp38
 70
     1
102
RTVSPropertyOp39
 70
     1
102
RTVSPropertyOp40
 70
     1
102
RTVSPropertyOp41
 70
     1
102
RTVSPropertyOp42
 70
     1
102
RTVSPropertyOp43
 70
     1
102
RTVSPropertyOp44
 70
     1
102
RTVSPropertyOp45
 70
     1
102
RTVSPropertyOp46
 70
     1
102
RTVSPropertyOp47
 70
     1
102
RTVSPropertyOp48
 70
     1
102
RTVSPropertyOp49
 70
     1
102
RTVSPropertyOp50
 70
     1
102
RTVSPropertyOp51
 70
     0
102
RTVSPropertyOp52
 70
     0
102
RTVSPropertyOp53
 70
     1
102
RTVSPropertyOp54
 70
     1
102
RTVSPropertyOp55
 70
     1
102
RTVSPropertyOp56
 70
     1
102
RTVSPropertyOp57
 70
     1
102
RTVSPropertyOp58
 70
     1
102
RTVSPropertyOp59
 70
     1
102
RTVSPropertyOp60
 70
     1
102
RTVSPropertyOp61
 70
     1
102
RTVSPropertyOp62
 70
     1
  0
XRECORD
  5
86EB9
102
{ACAD_REACTORS
330
86EB8
102
}
330
86EB8
100
AcDbXrecord
280
     1
102
RTVSPost2010Prop28
280
     0
102
RTVSPost2010PropOp28
 70
     1
102
RTVSPost2010Prop29
280
     1
102
RTVSPost2010PropOp29
 70
     1
102
RTVSPost2010Prop30
280
     1
102
RTVSPost2010PropOp30
 70
     1
102
RTVSPost2010Prop31
280
     0
102
RTVSPost2010PropOp31
 70
     1
102
RTVSPost2010Prop32
280
     0
102
RTVSPost2010PropOp32
 70
     1
102
RTVSPost2010Prop33
280
     0
102
RTVSPost2010PropOp33
 70
     1
102
RTVSPost2010Prop34
280
     0
102
RTVSPost2010PropOp34
 70
     1
102
RTVSPost2010Prop35
280
     0
102
RTVSPost2010PropOp35
 70
     1
102
RTVSPost2010Prop36
280
     0
102
RTVSPost2010PropOp36
 70
     1
102
RTVSPost2010Prop37
 90
       50
102
RTVSPost2010PropOp37
 70
     1
102
RTVSPost2010Prop38
140
0.0
102
RTVSPost2010PropOp38
 70
     1
102
RTVSPost2010Prop39
140
1.0
102
RTVSPost2010PropOp39
 70
     1
102
RTVSPost2010Prop40
 90
        0
102
RTVSPost2010PropOp40
 70
     1
102
RTVSPost2010Prop41ColorIndex
 90
       18
102
RTVSPost2010Prop41ColorRGB
 90
        0
102
RTVSPost2010PropOp41
 70
     1
102
RTVSPost2010Prop42
 90
       50
102
RTVSPost2010PropOp42
 70
     1
102
RTVSPost2010Prop43
 90
        3
102
RTVSPost2010PropOp43
 70
     1
102
RTVSPost2010Prop44ColorIndex
 90
        5
102
RTVSPost2010Prop44ColorRGB
 90
      255
102
RTVSPost2010PropOp44
 70
     1
102
RTVSPost2010Prop45
280
     0
102
RTVSPost2010PropOp45
 70
     1
102
RTVSPost2010Prop46
 90
       50
102
RTVSPost2010PropOp46
 70
     1
102
RTVSPost2010Prop47
 90
       50
102
RTVSPost2010PropOp47
 70
     1
102
RTVSPost2010Prop48
 90
       50
102
RTVSPost2010PropOp48
 70
     1
102
RTVSPost2010Prop49
280
     0
102
RTVSPost2010PropOp49
 70
     1
102
RTVSPost2010Prop50
 90
       50
102
RTVSPost2010PropOp50
 70
     1
102
RTVSPost2010Prop51ColorIndex
 90
      256
102
RTVSPost2010Prop51ColorRGB
 90
-16777216
102
RTVSPost2010PropOp51
 70
     0
102
RTVSPost2010Prop52
140
1.0
102
RTVSPost2010PropOp52
 70
     0
102
RTVSPost2010Prop53
 90
        2
102
RTVSPost2010PropOp53
 70
     1
102
RTVSPost2010Prop54
  1
strokes_ogs.tif
102
RTVSPost2010PropOp54
 70
     1
102
RTVSPost2010Prop55
280
     0
102
RTVSPost2010PropOp55
 70
     1
102
RTVSPost2010Prop56
140
1.0
102
RTVSPost2010PropOp56
 70
     1
102
RTVSPost2010Prop57
140
1.0
102
RTVSPost2010PropOp57
 70
     1
102
RTVSPropertyOp0
 70
     1
102
RTVSPropertyOp1
 70
     1
102
RTVSPropertyOp2
 70
     1
102
RTVSPropertyOp3
 70
     1
102
RTVSPropertyOp4
 70
     1
102
RTVSPropertyOp5
 70
     1
102
RTVSPropertyOp6
 70
     1
102
RTVSPropertyOp7
 70
     1
102
RTVSPropertyOp8
 70
     1
102
RTVSPropertyOp9
 70
     1
102
RTVSPropertyOp10
 70
     1
102
RTVSPropertyOp11
 70
     1
102
RTVSPropertyOp12
 70
     1
102
RTVSPropertyOp13
 70
     1
102
RTVSPropertyOp14
 70
     1
102
RTVSPropertyOp15
 70
     1
102
RTVSPropertyOp16
 70
     1
102
RTVSPropertyOp17
 70
     1
102
RTVSPropertyOp18
 70
     1
102
RTVSPropertyOp19
 70
     1
102
RTVSPropertyOp20
 70
     1
102
RTVSPropertyOp21
 70
     1
102
RTVSPropertyOp22
 70
     1
102
RTVSPropertyOp23
 70
     1
102
RTVSPropertyOp24
 70
     1
102
RTVSPropertyOp25
 70
     1
102
RTVSPropertyOp26
 70
     1
102
RTVSPropertyOp27
 70
     1
102
RTVSPropertyOp28
 70
     1
102
RTVSPropertyOp29
 70
     1
102
RTVSPropertyOp30
 70
     1
102
RTVSPropertyOp31
 70
     1
102
RTVSPropertyOp32
 70
     1
102
RTVSPropertyOp33
 70
     1
102
RTVSPropertyOp34
 70
     1
102
RTVSPropertyOp35
 70
     1
102
RTVSPropertyOp36
 70
     1
102
RTVSPropertyOp37
 70
     1
102
RTVSPropertyOp38
 70
     1
102
RTVSPropertyOp39
 70
     1
102
RTVSPropertyOp40
 70
     1
102
RTVSPropertyOp41
 70
     1
102
RTVSPropertyOp42
 70
     1
102
RTVSPropertyOp43
 70
     1
102
RTVSPropertyOp44
 70
     1
102
RTVSPropertyOp45
 70
     1
102
RTVSPropertyOp46
 70
     1
102
RTVSPropertyOp47
 70
     1
102
RTVSPropertyOp48
 70
     1
102
RTVSPropertyOp49
 70
     1
102
RTVSPropertyOp50
 70
     1
102
RTVSPropertyOp51
 70
     0
102
RTVSPropertyOp52
 70
     0
102
RTVSPropertyOp53
 70
     1
102
RTVSPropertyOp54
 70
     1
102
RTVSPropertyOp55
 70
     1
102
RTVSPropertyOp56
 70
     1
102
RTVSPropertyOp57
 70
     1
102
RTVSPropertyOp58
 70
     1
102
RTVSPropertyOp59
 70
     1
102
RTVSPropertyOp60
 70
     1
102
RTVSPropertyOp61
 70
     1
102
RTVSPropertyOp62
 70
     1
  0
XRECORD
  5
86EC1
102
{ACAD_REACTORS
330
86EC0
102
}
330
86EC0
100
AcDbXrecord
280
     1
102
RTVSPost2010Prop28
280
     0
102
RTVSPost2010PropOp28
 70
     1
102
RTVSPost2010Prop29
280
     1
102
RTVSPost2010PropOp29
 70
     1
102
RTVSPost2010Prop30
280
     1
102
RTVSPost2010PropOp30
 70
     1
102
RTVSPost2010Prop31
280
     0
102
RTVSPost2010PropOp31
 70
     1
102
RTVSPost2010Prop32
280
     0
102
RTVSPost2010PropOp32
 70
     1
102
RTVSPost2010Prop33
280
     0
102
RTVSPost2010PropOp33
 70
     1
102
RTVSPost2010Prop34
280
     0
102
RTVSPost2010PropOp34
 70
     1
102
RTVSPost2010Prop35
280
     0
102
RTVSPost2010PropOp35
 70
     1
102
RTVSPost2010Prop36
280
     0
102
RTVSPost2010PropOp36
 70
     1
102
RTVSPost2010Prop37
 90
       50
102
RTVSPost2010PropOp37
 70
     1
102
RTVSPost2010Prop38
140
0.0
102
RTVSPost2010PropOp38
 70
     1
102
RTVSPost2010Prop39
140
1.0
102
RTVSPost2010PropOp39
 70
     1
102
RTVSPost2010Prop40
 90
        0
102
RTVSPost2010PropOp40
 70
     1
102
RTVSPost2010Prop41ColorIndex
 90
       18
102
RTVSPost2010Prop41ColorRGB
 90
        0
102
RTVSPost2010PropOp41
 70
     1
102
RTVSPost2010Prop42
 90
       50
102
RTVSPost2010PropOp42
 70
     1
102
RTVSPost2010Prop43
 90
        3
102
RTVSPost2010PropOp43
 70
     1
102
RTVSPost2010Prop44ColorIndex
 90
        5
102
RTVSPost2010Prop44ColorRGB
 90
      255
102
RTVSPost2010PropOp44
 70
     1
102
RTVSPost2010Prop45
280
     0
102
RTVSPost2010PropOp45
 70
     1
102
RTVSPost2010Prop46
 90
       50
102
RTVSPost2010PropOp46
 70
     1
102
RTVSPost2010Prop47
 90
       50
102
RTVSPost2010PropOp47
 70
     1
102
RTVSPost2010Prop48
 90
       50
102
RTVSPost2010PropOp48
 70
     1
102
RTVSPost2010Prop49
280
     0
102
RTVSPost2010PropOp49
 70
     1
102
RTVSPost2010Prop50
 90
       50
102
RTVSPost2010PropOp50
 70
     1
102
RTVSPost2010Prop51ColorIndex
 90
      256
102
RTVSPost2010Prop51ColorRGB
 90
-16777216
102
RTVSPost2010PropOp51
 70
     0
102
RTVSPost2010Prop52
140
1.0
102
RTVSPost2010PropOp52
 70
     0
102
RTVSPost2010Prop53
 90
        2
102
RTVSPost2010PropOp53
 70
     1
102
RTVSPost2010Prop54
  1
strokes_ogs.tif
102
RTVSPost2010PropOp54
 70
     1
102
RTVSPost2010Prop55
280
     0
102
RTVSPost2010PropOp55
 70
     1
102
RTVSPost2010Prop56
140
1.0
102
RTVSPost2010PropOp56
 70
     1
102
RTVSPost2010Prop57
140
1.0
102
RTVSPost2010PropOp57
 70
     1
102
RTVSPropertyOp0
 70
     1
102
RTVSPropertyOp1
 70
     1
102
RTVSPropertyOp2
 70
     1
102
RTVSPropertyOp3
 70
     1
102
RTVSPropertyOp4
 70
     1
102
RTVSPropertyOp5
 70
     1
102
RTVSPropertyOp6
 70
     1
102
RTVSPropertyOp7
 70
     1
102
RTVSPropertyOp8
 70
     1
102
RTVSPropertyOp9
 70
     1
102
RTVSPropertyOp10
 70
     1
102
RTVSPropertyOp11
 70
     1
102
RTVSPropertyOp12
 70
     1
102
RTVSPropertyOp13
 70
     1
102
RTVSPropertyOp14
 70
     1
102
RTVSPropertyOp15
 70
     1
102
RTVSPropertyOp16
 70
     1
102
RTVSPropertyOp17
 70
     1
102
RTVSPropertyOp18
 70
     1
102
RTVSPropertyOp19
 70
     1
102
RTVSPropertyOp20
 70
     1
102
RTVSPropertyOp21
 70
     1
102
RTVSPropertyOp22
 70
     1
102
RTVSPropertyOp23
 70
     1
102
RTVSPropertyOp24
 70
     1
102
RTVSPropertyOp25
 70
     1
102
RTVSPropertyOp26
 70
     1
102
RTVSPropertyOp27
 70
     1
102
RTVSPropertyOp28
 70
     1
102
RTVSPropertyOp29
 70
     1
102
RTVSPropertyOp30
 70
     1
102
RTVSPropertyOp31
 70
     1
102
RTVSPropertyOp32
 70
     1
102
RTVSPropertyOp33
 70
     1
102
RTVSPropertyOp34
 70
     1
102
RTVSPropertyOp35
 70
     1
102
RTVSPropertyOp36
 70
     1
102
RTVSPropertyOp37
 70
     1
102
RTVSPropertyOp38
 70
     1
102
RTVSPropertyOp39
 70
     1
102
RTVSPropertyOp40
 70
     1
102
RTVSPropertyOp41
 70
     1
102
RTVSPropertyOp42
 70
     1
102
RTVSPropertyOp43
 70
     1
102
RTVSPropertyOp44
 70
     1
102
RTVSPropertyOp45
 70
     1
102
RTVSPropertyOp46
 70
     1
102
RTVSPropertyOp47
 70
     1
102
RTVSPropertyOp48
 70
     1
102
RTVSPropertyOp49
 70
     1
102
RTVSPropertyOp50
 70
     1
102
RTVSPropertyOp51
 70
     0
102
RTVSPropertyOp52
 70
     0
102
RTVSPropertyOp53
 70
     1
102
RTVSPropertyOp54
 70
     1
102
RTVSPropertyOp55
 70
     1
102
RTVSPropertyOp56
 70
     1
102
RTVSPropertyOp57
 70
     1
102
RTVSPropertyOp58
 70
     1
102
RTVSPropertyOp59
 70
     1
102
RTVSPropertyOp60
 70
     1
102
RTVSPropertyOp61
 70
     1
102
RTVSPropertyOp62
 70
     1
  0
ENDSEC
  0
EOF
